Incubus

Início > Incubus > acordes

I Wish You Were Here Tablatura

Incubus

Dificultad:AdelantadoAdelantado

tuner correct add songbook print version text version salvar en e-mail
acordesukuleletablaturabajobateriaarmónicaflautacavacopiano Guitar Pro
acordes

I Wish You Were Here

	  Intro/refrão 
E|---000---0-0-------------------| 
B|---000---0-0-------------------| 
G|-4-4-4-4-4-4-------------------| 
D|-2-2-2-2-2-2-4-4-4-/7-2-2-2-2-| 
A|-0-0-0-2-2-2-2-2-2-/5-2-2-2-2-| 
E|-------------2-2-2-/5-0-0-0-0-| 
 
E|---000---0-0-------------------| 
B|---000---0-0-------------------| 
G|-4-4-4-4-4-4-------------------| 
D|-2-2-2-2-2-2-4-4-4-/7-2-2-2-2-| 
A|-0-0-0-2-2-2-4-4-4-/7-2-2-2-2-| 
E|-------------2-2-2-/5-0-0-0-0-| 
 
Pós Intro: 
E|------| 
B|------| 
G|-9/11-| 
D|-x-x--| 
A|-7/9--| 
E|------| 
 
Verso: 
e|-0--0--0-------------12--------0--0--0------------------------------| 
b|--7--7--7---------------9-10----7--7--7-----------9-----------------| 
g|----------6-----------------------------6-------9---9---------------| 
d|-------------9h11-11-----------------------9h11-------11--9---------| 
a|--------------------------------------------------------------------| 
E|--------------------------------------------------------------------| 
                                                           ( repete ) 
 
Ponte: 
E|---------------------| 
B|---------------------| 
G|-6-6-6-9-9-9-7-7-7-7-| 
D|-4-4-4/7-7-7-5-5-5-5-|2x 
A|-4-4-4/7-7-7-5-5-5-5-| 
E|---------------------| 
 
Quando Brandon começa a cantar: "the world`s..." 
E|----------------------------| 
B|----------------------------| 
G|-6-6-6-9-9-9-7-7-7-12-12-12-| 
D|-4-4-4/7-7-7-5-5-5-x--x--x--|2x 
A|-4-4-4/7-7-7-5-5-5-10-10-10-| 
E|----------------------------| 
 
A musica termina em A5 
	  

No existe una video leccione para esta canción

request
Aumentar uno tonoAumentar uno tono
Aumentar uno semi-tonoAumentar uno semi-tono
Disminuir uno semi-tonoDisminuir uno semi-tono
Disminuir uno tonoDisminuir uno semi-tono
LosAcordes
Buscar
auto avanzar rasgueos aumentar disminuir cambiar color esconder acordes gráficos
losacordes exhibir acordes losacordes youTube video losacordes ocultar tabs losacordes ir hacia arriba losacordes