Incubus

Início > Incubus > acordes

Anna molly Tablatura

Incubus

Dificultad:PrincipiantePrincipiante

europeu

tuner correct add songbook print version text version salvar en e-mail
acordesukuleletablaturabajobateríaarmónicaflautacavacopiano Guitar Pro
acordes

Anna molly

Áño: 2006 - Álbum: Light Grenades

	  * = pinch harm.  
 
   Gtr I  (fast strumming pattern)  
 Intro/Chorus  
|--8----6----4------------------8---6----4----1----3-|  
|--8----8----4------------------8---8----4----1----3-|  
|--8----8----5---8/-10-10-10----8---8----5----1----4-|  
|-10----8----6---8/-10-10-10---10---8----6----3----3-|  
|-10----6----6---6/--8--8--8---10---6----6----3----5-|  
|--8---------4------------------8--------4----1----3-|  
 
  Gtr II  (keyboard tabbed for gtr) 
   TP    TP TP    TP TP     TP TP  
|------------------------------------|  
|---8----11--8----11--8-----11--8----|  
|------------------------------------|  
|------------------------------------|2nd time  
|------------------------------------|  
|------------------------------------|  
 
 PreChorus  
|-----------------------------------|  
|-----------------------------------|  
|--8--8--8--8--8\-7-----------------|  
|-10-10-10-10-10\-8---8--8--8--8\-5-|  
|--------------------10-10-10-10\-6-|  
|-----------------------------------|   
 
|--------------------------------------|  
|--------------------------------------|  
|--8--8--8--8--8--8--------------------|  
|-10-10-10--8--8--8---8--8--8\-5--5-5--|  
|--------------------10-10-10\-6--6-6--|  
|--------------------------------------|  
   
Verse     *            * 
|-----------------10---10-------8\-|  
|---------11---------8-------------|  
|----8-------8---------------------|  
|-10---10------10----------6-6-----|  
|----------------------------------|  
|----------------------------------|  
  {------------PM-------------}  
          *            * 
|-----------------10---10------10\-|  
|---------11---------8-------------|  
|----8-------8---------------------|  
|-10---10------10------------------|  
|-------------------------10-10----|  
|----------------------------------|  
  {------------PM-------------}  
   
|--8----6----4------------------8---6----4----1----3-|  
|--8----8----4------------------8---8----4----1----3-|  
|--8----8----5---8/-10-10-10----8---8----5----1----4-|  
|-10----8----6---8/-10-10-10---10---8----6----3----3-|  
|-10----6----6---6/--8--8--8---10---6----6----3----5-|  
|--8---------4------------------8--------4----1----3-|  
 
|-----------------------------------|  
|-----------------------------------|  
|--8--8--8--8--8\-7-----------------|  
|-10-10-10-10-10\-8---8--8--8--8\-5-|  
|--------------------10-10-10-10\-6-|  
|-----------------------------------|   
 
|--------------------------------------|  
|--------------------------------------|  
|--8--8--8--8--8--8--------------------|  
|-10-10-10--8--8--8---8--8--8\-5--5-5--|  
|--------------------10-10-10\-6--6-6--|  
|--------------------------------------|  
          *            * 
|-----------------10---10-------8\-|  
|---------11---------8-------------|  
|----8-------8---------------------|  
|-10---10------10----------6-6-----|  
|----------------------------------|  
|----------------------------------|  
  {------------PM-------------}     play 2nd time 
          *            * 
|-----------------10---10------10\-|  
|---------11---------8-------------|  
|----8-------8---------------------|  
|-10---10------10------------------|  
|-------------------------10-10----|  
|----------------------------------|  
  {------------PM-------------}  
 
 Bridge  
|------------------------------------------------------|  
|------------------------------------------------------|  
|-------------------------x-x-5--5b7-5--5b7r3h5--5b7-5~|  
|------------------------------------------------------|  
|------------------------------------------------------|  
|-4--x6\--3--x3--4-x6\--3------------------------------|  
 
 Breakdown  
|------------------------------------|  
|-------------------------------9--9-|  
|------------------------------10-10-|  
|----------5-5-----------5-x-x-10-10-|  
|----------6-6-----------6-x-x-8--8--|  
|-8-6-6-8-------8-6-6-8--------------|  
 
|----------------------------|  
|---------------------9--9---|  
|--------------------10-10---|  
|----------5-5-------10-10---|  
|----------6-6--3/5---8--8---|  
|-8-6-6-8-------4/6----------|  
 
|--8----6----4------------------8---6----4----1----3-|  
|--8----8----4------------------8---8----4----1----3-|  
|--8----8----5---8/-10-10-10----8---8----5----1----4-|  
|-10----8----6---8/-10-10-10---10---8----6----3----3-|  
|-10----6----6---6/--8--8--8---10---6----6----3----5-|  
|--8---------4------------------8--------4----1----3-|  
 
|-----------------------------------|  
|-----------------------------------|  
|--8--8--8--8--8\-7-----------------|  
|-10-10-10-10-10\-8---8--8--8--8\-5-|  
|--------------------10-10-10-10\-6-|  
|-----------------------------------|   
 
|--------------------------------------|  
|--------------------------------------|  
|--8--8--8--8--8--8--------------------|  
|-10-10-10--8--8--8---8--8--8\-5--5-5--|  
|--------------------10-10-10\-6--6-6--|  
|--------------------------------------| 
 

	  

No existe una video leccione para esta canción

request
LosAcordes
Buscar
auto avanzar rasgueos aumentar disminuir cambiar color esconder acordes gráficos
losacordes exhibir acordes losacordes youTube video losacordes ocultar tabs losacordes ir hacia arriba losacordes