Incubus

Início > Incubus > acordes

A Certain Shade Of Green acoustic Tablatura

Incubus

Dificultad:FácilFácil

tuner correct add songbook print version text version salvar en e-mail
acordesukuleletablaturabajobateríaarmónicaflautacavacopiano Guitar Pro
acordes

A Certain Shade Of Green acoustic

	  
Alright this is my first tab but I know its perfect, so enjoi and long live Fungus Amongus!!
~Steve of the Jungle~
Intro/chorus
----5---5---5-6-6-6-5-x-5-5---5---5-5-------------------------------|
----7-x-7-x-7-8-8-8-7-x-7-7-x-7-x-7-7-----7---7-7-77------6--6-6-6--|
----6-x-6-x-6-7-7-7-6-x-6-6-x-6-x-6-6-----7-x-7-7-77------7--7-7-7--|
----7-x-7-x-7-8-8-8-7-x-7-7-x-7-x-7-7-----9-x-9-9-99------8--8-8-8--|
--5-5-x-5-x-5-6-6-6-5-x-5-5-x-5-x-5-5-0---9-x-9-9-99-x-8--8--8-8-8--|
----------------------------------------7-7-x-7-7-77-x-6--6--6-6-6--|2x

verse
---9--------9-10--9---8--9--8--7-------5-------5--|
--10-------10-11-10---9-10--9--8-----7---7---6----|
--11-------11-12-11--10-11-10--9---6-------6------|
--------------------------------------------------|
--------------------------------------------------|
--------------------------------------------------|2x

---9---10-10--9--9--9--9-10--9---8--9--8--7--7--7-7-7-77--5--5-5--5--5-5--|
--10---11-11-10-10-10-10-11-10---9-10--9--8--8--8-8-8-88--7--7-7--6--6-6--|
--11---12-12-11-11-11-11-12-11--10-11-10--9-----9-9-9-99--6--6-6--6--6-6--|
--------------------------------------------------------------------------|
--------------------------------------------------------------------------|
--------------------------------------------------------------------------|1x

---9--9--9--9-9-10-10--9--9--9--9-10--9---8--9--8--7--7--7-7-7-77------5-------5--|
--10-10-10-1010-11-11-10-10-10-10-11-10---9-10--9--8--8--8-8-8-88----7---7---6----|
--11-11-11-1111-12-12-11-11-11-11-12-11--10-11-10--9-----9-9-9-99--6-------6------|
----------------------------------------------------------------------------------|
----------------------------------------------------------------------------------|
----------------------------------------------------------------------------------|1x

Chorus
----5---5---5-6-6-6-5-x-5-5---5---5-5-------------------------------|
----7-x-7-x-7-8-8-8-7-x-7-7-x-7-x-7-7-----7---7-7-77------6--6-6-6--|
----6-x-6-x-6-7-7-7-6-x-6-6-x-6-x-6-6-----7-x-7-7-77------7--7-7-7--|
----7-x-7-x-7-8-8-8-7-x-7-7-x-7-x-7-7-----9-x-9-9-99------8--8-8-8--|
--5-5-x-5-x-5-6-6-6-5-x-5-5-x-5-x-5-5-0---9-x-9-9-99-x-8--8--8-8-8--|
----------------------------------------7-7-x-7-7-77-x-6--6--6-6-6--|3x


----5---5---5-6-6-6-5-x-5-5---5---5-5---------9-10-97----------------|
----7-x-7-x-7-8-8-8-7-x-7-7-x-7-x-7-7-----7---7--7-77------6--6-6-6--|
----6-x-6-x-6-7-7-7-6-x-6-6-x-6-x-6-6-----7-x-7--7-77------7--7-7-7--|
----7-x-7-x-7-8-8-8-7-x-7-7-x-7-x-7-7-----7-x-7--7-77------8--8-8-8--|
--5-5-x-5-x-5-6-6-6-5-x-5-5-x-5-x-5-5-0---9-x-9--9-99-x-8--8--8-8-8--|
----------------------------------------7-7-x-7--7-77-x-6--6--6-6-6--|1x
Solo
----------9-8-7-5-5-7-5---------------------------------------------------9---
-------------------------7-7-5/6-5-7-5---3-5-5/7-5---5---6-6/8-6-6p5-5-3/79---
--4/6-4/6------------------------------7-----------7---7------------------9---
------------------------------------------------------------------------------
------------------------------------------------------------------------------
------------------------------------------------------------------------------
                                                                              

-9-x-10-10/12-12-12-12p10-9-10-9----9b9-7h9-9/10-9/10-9-7-5h7-7-7/8-8-8-8-8---
-9-x-----------------------------12-------------------------------------------
-9-x--------------------------------------------------------------------------
------------------------------------------------------------------------------
------------------------------------------------------------------------------
------------------------------------------------------------------------------
                                                                              

------------------------------------------------------------------------------
------------------------------------------------------------------------------
------------------------------------------------------------------------------
------------------------------------------------------------------------------
------------------------------------------------------------------------------
------------------------------------------------------------------------------

	  

No existe una video leccione para esta canción

request
LosAcordes
Buscar
auto avanzar rasgueos aumentar disminuir cambiar color esconder acordes gráficos
losacordes exhibir acordes losacordes youTube video losacordes ocultar tabs losacordes ir hacia arriba losacordes