House of Heroes

Início > House of H... > acordes

Buckets for bullets wounds Tablatura

House of Heroes

Dificultad:Ningún gradoNingún grado

europeu

tuner correct add songbook print version text version salvar en e-mail
acordesukuleletablaturabajobateríaarmónicaflautacavacopiano Guitar Pro
acordes

Buckets for bullets wounds

	   
 
i play this in dropped d 
intro on guitar 
e----------------------------------------------- 
b------------------------------------------------ 
g----10-10--10-10------8--8-8--7-----7-7-7--7---8-8--8-8-------------- 
d----10-10--10-10------8--8-8--7-----7-7-7--7---8-8--8-8------------- 
a----8--8---8---8------6--6-6--5------5-5-5-5---6--6-6--6--play 2x-- 
E---------------------------------------------- 
 
'shut up if you wanna get paid............ 
e-------------------------------- 
b----10-11-10------------------------- 
g-00-----------12--10--12--------------- 
d------------------------------ 
a------------------------------ 
E----------------------------- 
 
verses 
e----------------------------------------------- 
b------------------------------------------------ 
g------8--8-8--7--------7-7-7--7---------8-8--8-8-------------- 
d------8--8-8--7--------7-7-7--7---------8-8--8-8------------- 
a------6--6-6--5--------5-5-5-5----------6--6-6--6-- 
E---------------------------------------------- 
whats your option? cold corruption, or starvation 
 
g-10-10-10-10 
d-10-10-10-10 
a-8--8--8--8 
e------------- (repeate the above riff here) 
buckets for bullet wounds/ there are no......only victims.... 
 
Chorus 
find a place to put your hope in see how the open up the gates for............. 
A#5 F5 G5 A#5 D#5 
 
those who push them over, uh oh, the cold composure. i'm not afraid to 
F#5 G#5 A#5 D#5 F#5 
 
die tonite....im not afraid to.....back to intro 
G#5 A#5 D#5 F#5 G#5  
 
No bridge in this song 

	  

No existe una video leccione para esta canción

request
Aumentar uno tonoAumentar uno tono
Aumentar uno semi-tonoAumentar uno semi-tono
Disminuir uno semi-tonoDisminuir uno semi-tono
Disminuir uno tonoDisminuir uno semi-tono
LosAcordes
Buscar
auto avanzar rasgueos aumentar disminuir cambiar color esconder acordes gráficos
losacordes exhibir acordes losacordes youTube video losacordes ocultar tabs losacordes ir hacia arriba losacordes