Hoobastank

Início > Hoobastank > acordes

The Critic Tablatura

Hoobastank

Dificultad:Ningún gradoNingún grado

tuner correct add songbook print version text version salvar en e-mail
acordesukuleletablaturabaixobateríaarmónicaflautacavacopiano Guitar Pro
acordes

The Critic

	   
Standard Tuning: E A D G B e 
 
~ = Let it ring 
/ = slide 
x = harmonics/palm mute 
 
Note: Listen to the song for rhythm etc. 
 
Intro: 
e|--------3~----------2~----------------------------| 
B|-----1-----------1-----------1--3-1-31-3-1-31-31--| 
G|--2-----------2-----------2-----------------------| 
D|--------------------------------------------------| 
A|--------------------------------------------------| 
E|--------------------------------------------------| 
 
e|--------------------------------------------------| 
B|--8888888x7777777-----1--3-1-31-3-1-31-31---------| 
G|--7777777x6666666--2------------------------------| 
D|--5555555x4444444---------------------------------| 
A|--------------------------------------------------| 
E|--------------------------------------------------| 
 
Verse: 
e|--------3~----------2~--------1~--------3~--------| 
B|-----1-----------1---------3---------3------------| 
G|--2-----------2---------3---------0---------------| 
D|--------------------------------------------------| x2 
A|--------------------------------------------------| 
E|--------------------------------------------------| 
 
On the 3rd time 2nd guitar comes in: 
e|--------------------------------------------------| 
B|--------------------------------------------------| 
G|--12~-----------11~-----------10~-----------11~---| 
D|--12~-----------11~-----------10~-----------11~---| 
A|--10~------------9~------------8~------------9~---| 
E|--------------------------------------------------| 
 
Pre-Chorus:      1:06 ? 1:10 
e|--------------------------------------------------| 
B|--------------------------------------------------| 
G|----------------7/8/10\7\5------------------------| 
D|----------------7/8/10\7\5------------------------| 
A|----------------5/6/-8\5\3------------------------| 
E|--------------------------------------------------| 
 
Chorus: Guitar 1 
e|------------------------1---1---1?-0---0---0------| 
B|--3-1-3-1-31-3-1-3-1-31---1---1--1---1---1--1-----| 
G|--------------------------------------------------| 
D|--------------------------------------------------| 
A|--------------------------------------------------| 
E|--------------------------------------------------| 
 
Guitar 2 
e|--------------------------------------------------| 
B|--------------------------------------------------| 
G|--7---------11------------------------------------| 
D|--7---------11---------11---------8---------7-----| 
A|--5----------9---------11---------8---------7-----| 
E|------------------------9---------6---------5-----| 
 
Verse 
 
Chorus 
 
Bridge:            2:36 
e|--------------------------------------------------| 
B|--------------------------------------------------| 
G|--------------------------------------------------| 
D|----------4xx4xx4/6-4xx4xx4/6---------------------| 
A|----------4xx4xx4/6-4xx4xx4/6---------------------| 
E|----------2xx2xx2/4-2xx2xx2/4---------------------| 

	  

No existe una video leccione para esta canción

request
Aumentar uno tonoAumentar uno tono
Aumentar uno semi-tonoAumentar uno semi-tono
Disminuir uno semi-tonoDisminuir uno semi-tono
Disminuir uno tonoDisminuir uno semi-tono
LosAcordes
Buscar
auto avanzar rasgueos aumentar disminuir cambiar color esconder acordes gráficos
losacordes exhibir acordes losacordes youTube video losacordes ocultar tabs losacordes ir hacia arriba losacordes