Hombres G

Início > Hombres G > acordes

Te quiero Tablatura

Hombres G

Dificultad:ExpertoExperto

aleffederico

tuner correct add songbook print version text version salvar en e-mail
acordesukuleletablaturabajobateríaarmónicaflautacavacopiano Guitar Pro
acordes

Te quiero

Tono:  D Más
Te quiero Key AA
Te quiero Key A#A#
Te quiero Key BB
Te quiero Key CC(Disminuir uno tono)
Te quiero Key C#C#(Disminuir uno semi-tono)
Te quiero Key DD(tono original)
Te quiero Key D#D#(Aumentar uno semi-tono)
Te quiero Key EE(Aumentar uno tono)
Te quiero Key FF
Te quiero Key F#F#
Te quiero Key GG
Te quiero Key G#G#
	  -------------------------------------------------------------- 
-10h12--10h12--12-10------------------------------------------ 
----------------------11-12-11-9-7---7-9h11-11-11-9-11-------- 
-----------------------------------9-------------------------- 
-------------------------------------------------------------- 
-------------------------------------------------------------- 

-------------------------------------------------------------- 
-------------------------------------------------------------- 
-9-9-9h7---------------------------------7-9-9-9-7------------ 
---------9-7-9-7-9-7-----------------7-9---------------------- 
---------------------9-10-9----0-7-9-------------------------- 
----------------------------10-------------------------------- 

---------------------10--17-15-14-15h17-17-17-17h19-19-17h19-19-17h19- 
-10h12-12-12-12h11-12--12--------------------------------------- 
---------------------------------------------------------------- 
---------------------------------------------------------------- 
---------------------------------------------------------------- 
---------------------------------------------------------------- 

-15-15-15h14--------------10------10-------10-12-10-12h14-14-14-12 
-------------15-15---10h12---10h12----10h12----------------------- 
------------------------------------------------------------------ 
------------------------------------------------------------------ 
------------------------------------------------------------------ 
------------------------------------------------------------------ 
	  

te-quiero-by-hombres-g Play

Existe una video leccione para esta canción

view more
LosAcordes
Buscar
auto avanzar rasgueos aumentar disminuir cambiar color esconder acordes gráficos
losacordes exhibir acordes losacordes youTube video losacordes ocultar tabs losacordes ir hacia arriba losacordes