Hombres G

Início > Hombres G > acordes

El Ataque De Las Chicas Cocodrilo Tablatura

Hombres G

Dificultad:PrincipiantePrincipiante

Stuka18

tuner correct add songbook print version text version salvar en e-mail
acordesukuleletablaturabajobateríaarmónicaflautacavacopiano Guitar Pro
acordes

El Ataque De Las Chicas Cocodrilo

Áño: 1983 - Álbum: Los Singles 1985-2005

	  e----7-------9----7----5 
B----7-------10---7----5 
G----7------------------ BEBES UN POCO(Y LUEGO ESTO) 
D----9------------------ 
A----9------------------ 
E----7------------------ 
 
 
e---5------7--5--4----- 
B---5------7--5--5----- 
G---6------------------ TE HACES EL LOCO( Y ESTO) 
D---7------------------ 
A---7------------------ ES NADA MAS PARA KE SE UBIKEN 
E---5------------------ EN DONDE VA EL ARREGLO OK? 
 
ORA LO BUENO EL SOLO:) 
 
e------------------------------------------------------ 
B---9/10-9--------------------------------------------- 
G----------6-4/6-------------2/1-1/2-2----------------- 
D-----------------4----2--4---------------------------- 
A------------------------------------------------------ 
E------------------------------------------------------ 
 
E------------------------------------------------------ 
B---9/10-9--------------------------------7-7-7-7-7-7-7 
G-----------6--4/6-------------6----------6-6-6-6-6-6-6 
D-------------------4--------7------------7-7-7-7-7-7-7 
A------------------------------------------------------ 
E------------------------------------------------------ 
 
Y LUEGO UNOS ACORDES A-E-E-E-F#m-D-D-D-D Y LUEGO OTRO:) 
 
 
e------------------------------------------------------------ 
B--------------------------10----12P`--10--10---12-12-12-12P` 
G---2-2-2-2-2-2-------8/11----11---------11--11------------- 
D--------4-4-4-4-------------------------------------------- 
A------------------------------------------------------ 
E------------------------------------------------------ 
 
e---14------17---14-----17-----14----19-------14----19-----14 
B---14--14---------14-------14-------14-------14------14----- 
G------------------------------------------------------------ 
D------------------------------------------------------------ 
E------------------------------------------------------------ 
 
e--------------------------------------------- 
B-14-14-14-14-14-14-14-14-14---12-12-12-----10 
G--------------------------------------------- 
D--------------------------------------------- 
A--------------------------------------------- 
E--------------------------------------------- 
 
 

	  

No existe una video leccione para esta canción

request
LosAcordes
Buscar
auto avanzar rasgueos aumentar disminuir cambiar color esconder acordes gráficos
losacordes exhibir acordes losacordes youTube video losacordes ocultar tabs losacordes ir hacia arriba losacordes