Helloween

Início > Helloween > acordes

Mirror Mirror Tablatura

Helloween

Dificultad:Ningún gradoNingún grado

eduardo_lyvio

tuner correct add songbook print version text version salvar en e-mail
acordesukuleletablaturabaixobateríaarmónicaflautacavacopiano Guitar Pro
acordes

Mirror Mirror

Áño: 2000 - Álbum: The Dark Ride

	  Intro: 
 
Gt 1. 
e------------------------------| 
b------------------------------| 
g------------------------------| 
d-3--3-2--2-2-2-2-2-2-4-4-4-4--| 
a-3--3-2--2-2-2-2-2-2-4-4-4-4--| 
e-1--1-0--0-0-0-0-0-0-2-2-2-2--| 
P.m.        (________________) 
 
Gt 2. 
e------------------------------------------------------------------------------------------------| 
b-----------12-11---------------------------12-11------12~-11------12~-11---------------12-11----| 
g-12~-14----------14-12~-12b-12~-14----------14------------14-----------14-12~-14---------14-12~-| 
d------------------------------------------------------------------------------------------------| 
a------------------------------------------------------------------------------------------------| 
e------------------------------------------------------------------------------------------------| 
 
e---------------------------------------------------------------| 
b----------------------------12-11------12~-11------12~-11------| 
g-14h15-15-14-12~-14----------14------------14------------14-12-| 
d---------------------------------------------------------------| 
a---------------------------------------------------------------| 
e---------------------------------------------------------------| 
 
Gt 1. 
e-------| 
b-------| 
g-------| 
d-2----| 
a-2----| 
e-0----| 
 
Gt 2. 
e--------------------------------------------| 
b--------------------------------------------| 
g-----------------------------------------0--| 
d--------------------------------------------| 
a----2----2----2----2----2----2-----2--------| 
e-0-----0---0----0----0-----0----0-----------| 
 
g-----------------------------------------0--| 
d--------------------------------------------| 
a----5----5----5----5----5-----5----5--------| 
e-3----3----3----3----3-----3-----3----------| 
 
 
 
Verse: 
Gt 1. 
e------------------------------------| 
b------------------------------------| 
g------------------------------------| 
d-------2---5---2---2---2-2--2----| 
a-------2---5---2---2---2-2--2----| 
e-12/--0---3---0---0---0-0--0----| 
P.m.                          (___) 
 
Gt 2. 
e--------------------------------------------| 
b--------------------------------------------| 
g-----------------------------------------0--| 
d--------------------------------------------|   (2x) 
a----2----2----2----2----2----2-----2-----| 
e-0-----0---0----0----0-----0----0--------| 
 
e---------------------------------------------0------| 
b-----------------------------------------------0----| 
g-----------------------------------------0------0---| 
d----------------------------------------------------| 
a----5----5----5----5----5-----5----5--------------| 
e-3----3----3----3----3-----3-----3----------------| 
 
e------------------------------------------------0-----------| 
b---------------------------------------------------0--------| 
g-----------------------------------------0-----------0------| 
d------------------------------------------------------------|   (2x) 
a----2----2----2----2----2----2-----2----------------------| 
e-0-----0---0----0----0-----0----0---------0---------------| 
 
e--------------------------------------|         e--------| 
b--------------------------------------|         b--------| 
g--------------------------------------|         g--------| 
d-3--3-2--2-2-2-2-2-2-4-4-4-4- --|  4x   d--3----| 
a-3--3-2--2-2-2-2-2-2-4-4-4-4----|       a--3----| 
e-1--1-0--0-0-0-0-0-0-2-2-2-2----|       e--1----| 
P.m.        (________________) 
 
e-------------------------| 
b-------------------------| 
g-------------------------| 
d-------------------------| (3x) 
a--2-2-3-2-3-2-3-3----| 
e--0-0-1-0-1-0-1-1----| 
P.m__     _    _ 
 
 
g--------------------------| 
d--------------------------| (3x) 
a--2-2-3-2-3-2-3-2-2---| 
e--0-0-1-0-1-0-1-0-0---| 
P.m__     _    _     _ 
 
Verse 2 
e------------------------------------| 
b------------------------------------| 
g------------------------------------| 
d-2-2-2-2-2-2-2-2-2-2-2-2-2----| (3x) 
a-2-2-2-2-2-2-2-2-2-2-2-2-2----| 
e-0-0-0-0-0-0-0-0-0-0-0-0-0----| 
P.m ___    _________ 
 
e--------------------------------| 
b--------------------------------| 
g--------------------------------| 
d-2-2-2-2-2-2-2-2-2-2-2-----| 
a-2-2-2-2-2-2-2-2-2-2-2-----| 
e-0-0-0-0-0-0-0-0-0-0-0-----| 
P.m. ________________ 
 
Chorus 
e--------------------------------------|         e--------| 
b--------------------------------------|         b--------| 
g--------------------------------------|         g--------| 
d-3--3-2--2-2-2-2-2-2-4-4-4-4- --|  4x   d--3----| 
a-3--3-2--2-2-2-2-2-2-4-4-4-4----|       a--3----| 
e-1--1-0--0-0-0-0-0-0-2-2-2-2----|       e--1----| 
P.m.        (________________) 
 
Bridge 
e------------------------------------------------------| 
b------------------------------------------------------| 
g------------------------------------------------------| 
d-5-------------7-------------5-------------7---9(a.h)-| 
a-5-------------7-------------5-------------7----------| 
e-3---3-3h5---5---5-5h7---3---3-3h5---5----------------| 
 
Solo 
Gt 1. 
e--------------------------------------|         e---------| 
b--------------------------------------|         b---------| 
g--------------------------------------|         g---------| 
d-3--3-2--2-2-2-2-2-2-4-4-4-4- --|  4x   d--3-3---| 
a-3--3-2--2-2-2-2-2-2-4-4-4-4----|       a--3-3---| 
e-1--1-0--0-0-0-0-0-0-2-2-2-2----|       e--1-1---| 
 
g-------------------------| 
d-------------------------| (6x) 
a--2-2-3-2-3-2-3-3----| 
e--0-0-1-0-1-0-1-1----| 
P.m__     _    _ 
 
e-----------------------------| 
b-----------------------------| 
g-----------------------------| 
d-----------------------------| (3x) 
a--2-2-3-2-3-2-3-2-3-3-3-| 
e--0-0-1-0-1-0-1-0-1-1-1-| 
P.m__     _    _     _ 
 
Solo Gt 2. 
e-------------------------------------------------------------------------------------------| 
b-----------------------------------------------12-15--------------17~(a.h)-17^-16^~^~^~----| 
g---------------------------------12~-12-14----------12h14~~ -------------------------------| 
d-2^-2^-2^-2^-2^-2^-2^-2^-------------------------------------------------------------------| 
a-------------------------------------------------------------------------------------------| 
e---------------------------------------------------------------------------------------121~| 
 
e--------------------------------------------| 
b---------------12-15------------------------| 
g-------12-14----------12^-----------12~(a.h)| 
d-10~ ---------------------------------------| 
a------------------------------8/10~ --------| 
e--------------------------------------------| 
 
Chorus 
Gt 1. 
e--------------------------------------|          
b--------------------------------------|          
g--------------------------------------|          
d-3--3-2--2-2-2-2-2-2-4-4-4-4- --|  Ate  acabar a musica 
a-3--3-2--2-2-2-2-2-2-4-4-4-4----|          
e-1--1-0--0-0-0-0-0-0-2-2-2-2----|          
P.m.        (________________) 
Gt 2. 
e------------------------------------------------------------------------------------------------| 
b-----------12-11---------------------------12-11------12~-11------12~-11---------------12-11----| 
g-12~-14----------14-12~-12b-12~-14----------14------------14-----------14-12~-14---------14-12~-| 
d------------------------------------------------------------------------------------------------| 
a------------------------------------------------------------------------------------------------| 
e------------------------------------------------------------------------------------------------| 
 
e--------------------------------------------------------| 
b----------------------------12-11------12~-11------12~--| 
g-14h15-15-14-12~-14----------14------------14-----------| 
d--------------------------------------------------------| 
 

	  

No existe una video leccione para esta canción

request
LosAcordes
Buscar
auto avanzar rasgueos aumentar disminuir cambiar color esconder acordes gráficos
losacordes exhibir acordes losacordes youTube video losacordes ocultar tabs losacordes ir hacia arriba losacordes