Hardneja Sertacore

Início > Hardneja S... > acordes

Fada Tablatura

Hardneja Sertacore

Dificultad:FácilFácil

Thagton

tuner correct add songbook print version text version salvar en e-mail
acordesukuleletablaturabajobateríaarmónicaflautacavacopiano Guitar Pro
acordes

Fada

	  Hardnerja e Sertacore 
Fada 

By : Thágton Dezidério 

Verso I 

Guitar I (Base) 
Fada, fada querida, dona da minha vida 

E||-----------------------------x--------------------------------------------------| 
B||-----------------------------x--------------------------------------------------| 
G||-----------------------------x--------------------------------------------------| 
D||--7-7-7-7-7-----4-4-4-4-4----x--------7-7-7-7-7------4-4-4-4-4------------------| 
A||--7-7-7-7-7-----4-4-4-4-4----x--------7-7-7-7-7------4-4-4-4-4------------------| 
E||--5-5-5-5-5-----2-2-2-2-2----x--------5-5-5-5-5------2-2-2-2-2------------------| 

Guitar I (Base) 
Você se foi, levou meu calor, você se foi, mas não me levooooou 

E||------------------------------x------------------------------------------------------| 
B||------------------------------x------------------------------------------------------| 
G||------------------------------x------------------------------------------------------| 
D||----2-2-2-2-2-----4-4-4-4-4---x----2-2-2-2-2----4-4-4-4-4---2~-----------------------| 
A||----2-2-2-2-2-----4-4-4-4-4---x----2-2-2-2-2----4-4-4-4-4---2~-----------------------| 
E||------------------2-2-2-2-2---x-----------------2-2-2-2-2----------------------------| 


Guitar I (Base) / Guitar II (Solo) 

Lua, lua de encanto, ouça pra quem eu canto 

E||------------------------------x--------------------------------------------------| 
B||------------------------------x--------------------------------------------------| 
G||------------------------------x--------------------------------------------------| 
D||---7-7-7-7-7-----4-4-4-4-4----x--------7-7-7-7-7------4-4-4-4-4------------------| 
A||---7-7-7-7-7-----4-4-4-4-4----x--------7-7-7-7-7------4-4-4-4-4------------------| 
E||---5-5-5-5-5-----2-2-2-2-2----x--------5-5-5-5-5------2-2-2-2-2------------------| 


Ela levou minha magia, mas ela é minha alegria 

Guitar I (Base) / Guitar II (Solo) (Abafado) 

E||------------------------------x-------------------------------------------------| 
B||------------------------------x-------------------------------------------------| 
G||------------------------------x-------------------------------------------------| 
D||----2-2-2-2-2-----4-4-4-4-4---x----2-2-2-2-2----4-4-4-4-4-------4-x--4-x--------| 
A||----2-2-2-2-2-----4-4-4-4-4---x----2-2-2-2-2----4-4-4-4-4-------4-x--4-x--------| 
E||------------------2-2-2-2-2---x-----------------2-2-2-2-2-------2-x--2-x--------| 


Pré - Chorus I 

Vejo uma luz, uma estrela brilhar, 

                 Guitar  I (Base)                                                        

E||----------------------------------------|                            
B||----------------------------------------|                            
G||----7-7-7-7-7-----9-9-9-9-9-------------|                            
D||----7-7-7-7-7-----9-9-9-9-9-------------|                            
A||----5-5-5-5-5-----7-7-7-7-7-------------|                            
E||----------------------------------------|    


              Guitar II (Solo) 

E||-----------------------------------------| 
B||-----------------------------------------| 
G||-----15-15-15-----14-14-14---------------| 
D||-----x--x--x------x--x--x---------------| 
A||-----13-13-13-----12-12-12---------------| 
E||-----------------------------------------|                         


Sinto um cheiro de perfume no ar 

               Guitar  I (Base)                                                       

E||-----------------------------------------|                            
B||-----------------------------------------|                            
G||-----------------------------------------|                            
D||-----7-7-7-7-7-------4-4-4-4-4-----------|                            
A||-----7-7-7-7-7-------4-4-4-4-4-----------|                            
E||-----5-5-5-5-5-------2-2-2-2-2-----------|                            

            Guitar II (Solo) 

E||--------------------------x---------------------------------| 
B||--------------------------x---------------------------------| 
G||--------------------------x---------------------------------| 
D||--------------------------x---------------------------------| 
A||----------6--8--6--5------x----------2--4--2--0-------------| 
E||----5--8------------------x----2--4-------------------------| 



Vejo minha fada e sua vara de condão, tocando meu coração 

           Guitar  I (Base)                                                                                                    

E||-----------------------------x--------------------------------|                   B||-----------------------------x--------------------------------|              G||------7-7-7-7------9-9-9-9---x--7-7---9-9---------------------|                           
D||------7-7-7-7------9-9-9-9---x--7-7---9-9----7---7----7~------|                         
A||------5-5-5-5------7-7-7-7---x--5-5---7-7----7---7----7~------|                           
E||-----------------------------x---------------5---5----5~------|                           


         Guitar II (Solo) 

E||----------------------------x------------------------------------| 
B||----------------------------x------------------------------------| 
G||-----7-7-7-7----13-13-13----x---11-11---9-9----14~---------------| 
D||-----7-7-7-7----x--x--x-----x---x--x----x-x----x-----------------| 
A||-----5-5-5-5----11-11-11----x---9--9----7-7----12~---------------| 
 E||---------------------------x------------------------------------| 

Chorus I 

Madrugada de amor que não vai acabar, Se estou sonhando, não quero mais acordar 

Guitar I (Base) / Guitar II (Solo) 

E||--------------------------------x--------------------------------------------------| 
B||--------------------------------x--------------------------------------------------| 
G||--------------------------------x--------------------------------------------------| 
D||-----7-7-7-7-7-----4-4-4-4-4----x--------7-7-7-7-7------4-4-4-4-4------------------| 
A||-----7-7-7-7-7-----4-4-4-4-4----x--------7-7-7-7-7------4-4-4-4-4------------------| 
E||-----5-5-5-5-5-----2-2-2-2-2----x--------5-5-5-5-5------2-2-2-2-2------------------| 


Minha história linda, meu conto de amooooor 

Guitar I (Base)                                                                                                                 

E||-----------------------------x-------------------------------|                   B||-----------------------------x-------------------------------|               G||------7-7-7-7------9-9-9-9---x-------------------------------|                    D||------7-7-7-7------9-9-9-9---x---7-7-7------2-~--------------|                           
A||------5-5-5-5------7-7-7-7---x---7-7-7------2-~--------------|                           
E||-----------------------------x---5-5-5-----------------------|                            

Guitar II (Solo) 

E||-----------------------x------------------------------------| 
B||-----------------------x------------------------------------| 
G||----11-11-11---9-9-9---x------------------------------------| 
D||----x-x--x-----x-x-x---x------7-7-7------2-~----------------| 
A||----9--9--9----7-7-7---x------7-7-7------2-~----------------| 
E||-----------------------x------5-5-5-------------------------| 


Algo aqui me diz que essa paixão não é em vão, O meu sentimento é bem mais que uma emoção 

Guitar I (Base) / Guitar II (Solo) 

E||--------------------------------x--------------------------------------------------| 
B||--------------------------------x--------------------------------------------------| 
G||--------------------------------x--------------------------------------------------| 
D||-----7-7-7-7-7-----4-4-4-4-4----x--------7-7-7-7-7------4-4-4-4-4------------------| 
A||-----7-7-7-7-7-----4-4-4-4-4----x--------7-7-7-7-7------4-4-4-4-4------------------| 
E||-----5-5-5-5-5-----2-2-2-2-2----x--------5-5-5-5-5------2-2-2-2-2------------------| 


Eu espero o tempo que for, minha fada do amor ... 

      Guitar  I (Base)                                                                                                    

E||-----------------------------x-------------------------------|                    B||-----------------------------x-------------------------------|               G||------7-7-7-7------9-9-9-9---x--7-7---9-9--------------------|                           
D||------7-7-7-7------9-9-9-9---x--7-7---9-9---7---7----7^------|                           
A||------5-5-5-5------7-7-7-7---x--5-5---7-7---7---7----7^------|                           
E||-----------------------------x--------------5---5----5^------|                            

Guitar II (Solo) 

E||--------------------------x--------------------------------| 
B||--------------------------x--------------------------------| 
G||-----11-11-11---13-13-13--x----11--11-----9--9-----14~-----| 
D||-----x--x--x----x--x--x---x----x--x------x--x------x-------| 
A||-----9--9--9----11-11-11--x----9---9------7--7-----12-~----| 
E||--------------------------x--------------------------------| 

fada do amooooor! .... 

Guitar  I (Base)                                                                                                    

E||----------------------------------|                           
B||----------------------------------|                           
G||----7-7---9-9---------------------|                           
D||----7-7---9-9----7---7----7^------|                          
A||----5-5---7-7----7---7----7^------|                           
E||-----------------5---5----5^------|                            

Guitar II (Solo) 

E||-------------------------------| 
B||-------------------------------| 
G||---11--11-----9--9-----14~-----| 
D||---x--x------x--x------x-------| 
A||---9---9------7--7-----12-~----| 
E||-------------------------------| 

fadaaaaaaaa ...... (Abafado em A / Guitar I e Guitar II) 

 .... Depois do abafado / Antes do Solo  

Guitar I (Base) / Guitar II (Solo) 

E||-----------------------------------------| 
B||-----------------------------------------| 
G||----9-----13----14----16------13---------| 
D||----x-----x------x-----x-------x---------| 
A||----7-----11----12----14------11---------| 
E||-----------------------------------------| 

(SOLO) 

Guitar I (Base) 

E||--------------------------------x--------------------------------------------------| 
B||--------------------------------x--------------------------------------------------| 
G||--------------------------------x--------------------------------------------------| 
D||-----7-7-7-7-7-----4-4-4-4-4----x--------7-7-7-7-7------4-4-4-4-4------------------| 
A||-----7-7-7-7-7-----4-4-4-4-4----x--------7-7-7-7-7------4-4-4-4-4------------------| 
E||-----5-5-5-5-5-----2-2-2-2-2----x--------5-5-5-5-5------2-2-2-2-2------------------| 

E||-----------------------------x--------------------------------|         
B||-----------------------------x--------------------------------|               G||------7-7-7-7------9-9-9-9---x--7-7---9-9---------------------|                        
D||------7-7-7-7------9-9-9-9---x--7-7---9-9----7---7----7^------|                        
A||------5-5-5-5------7-7-7-7---x--5-5---7-7----7---7----7^------|                           
E||-----------------------------x---------------5---5----5^------|               

Guitar II (Solo) 

E||----------------------------------------------------------------------------| 
B||----------------------------------------------------------------------------| 
G||----------9^-----9-----------------------------9^--------9--13^--11---------| 
D||--9--11------------12--11---9---------9--11----------11---------------------| 
A||------------------------------11--9-----------------------------------------| 
E||----------------------------------------------------------------------------| 

E||------------------------------------------9--10-10-9----------------------| 
B||-----------------10-10-10-10--------------------------12--10-10^----------| 
G||-----7-7-7-7-------------------9^-----------------------------------------| 
D||--------------------------------------------------------------------------| 
A||--------------------------------------------------------------------------| 
E||--------------------------------------------------------------------------| 

Interlude  

(Nas duas primeiras vezes apenas a Guitarra II faz a Oitavada) 

Guitar II (Solo) 

(2x) 

E||-------------------------------------------------------| 
B||-------------------------------------------------------| 
G||------14-14--14------9--9----------14-14-----13-13-----| 
D||------x---x---x-------x--x----------x---x-----x--x-----| 
A||-----12--12--12------7--7----------12-12-----11-11-----| 
E||-------------------------------------------------------| 

E||---------------------------------------------------------| 
B||---------------------------------------------------------| 
G||-----14-14--14-----9---9---------16--16-----13--13-------| 
D||-----x---x---x-----x---x---------x---x------x---x-------| 
A||----12--12--12-----7---7--------14--14------11--11-------| 
E||---------------------------------------------------------| 


(Na terceira vez a Guitarra I entra fazendo base em F#5 e A) 

Final - Interlude  

Guitar I (Base) 

E||----------------------| 
B||----------------------| 
G||----------------------| 
D||---4------7--7----4---| 
A||---4------7--7----4---| 
E||---2------5--5----2---| 

Guitar II (Solo) 

E||-------------------------------| 
B||-------------------------------| 
G||-------------------------------| 
D||----14--14---11----11----------| 
A||----x---x-----x----x-----------| 
E||---12--12----13----9-----------| 



Vejo uma luz, uma estrela brilhar ...   (parte só na bateria) 

Repetir Pré - Chorus / Chorus 
	  

No existe una video leccione para esta canción

request
Aumentar uno tonoAumentar uno tono
Aumentar uno semi-tonoAumentar uno semi-tono
Disminuir uno semi-tonoDisminuir uno semi-tono
Disminuir uno tonoDisminuir uno semi-tono
LosAcordes
Buscar
auto avanzar rasgueos aumentar disminuir cambiar color esconder acordes gráficos
losacordes exhibir acordes losacordes youTube video losacordes ocultar tabs losacordes ir hacia arriba losacordes