Groove Armada

Início > Groove Arm... > acordes

Purple haze Tablatura

Groove Armada

Dificultad:PrincipiantePrincipiante

europeu

tuner correct add songbook print version text version salvar en e-mail
acordesukuleletablaturabajobateríaarmónicaflautacavacopiano Guitar Pro
acordes

Purple haze

Áño: 2003 - Álbum: Greatest Hits

	  Intro: 
e|---------------------------------------| 
B|---------------------------------------| 
G|---------------------------------------| 
D|------5--5--7------------------------5-| 
A|-5h7-----------5/7-5/7---3---0--5h7----| 
E|---------------------------------------| 
  
e|------------------------------| 
B|------------------------------| 
G|----------------------------2-| 
D|-5-----5--7-------------------| 
A|----7--------5h7--5h7--3h4----| 
E|------------------------------| 
  
Just before the loud guitar kicks in you get this little 
section: "On your marks get set girl..." 
e|-----------------------------------| 
B|-----------------------------------| 
G|---------------------------7----5--| 
D|-7-7-7-7-7---7-7-7-7-7-----7----5--| 
A|-7-7-7-7-7---7-7-7-7-7-----5----3--| 
E|-5-5-5-5-5---5-5-5-5-5-------------| 
Repeat 
  
Verse: "Come On!" and "My recipe is Jack Daniels..." 
e|--------------------------------------------------------| 
B|------------------------7---5---------------------------| 
G|------------------------7---5---------------------------| 
D|-7-7-7-7-7---7-7--7-7---7---5---7-7-7-7-7---7-7--7-7--7-| 
A|-7-7-7-7-7---7-7--7-7---5---3---7-7-7-7-7---7-7--7-7--7-| 
E|-5-5-5-5-5---5-5--5-5-----------5-5-5-5-5---5-5--5-5--5-| 
  
  
    
  

	  

No existe una video leccione para esta canción

request
LosAcordes
Buscar
auto avanzar rasgueos aumentar disminuir cambiar color esconder acordes gráficos
losacordes exhibir acordes losacordes youTube video losacordes ocultar tabs losacordes ir hacia arriba losacordes