Green Day

Início > Green Day > acordes

She Tablatura

Green Day

Dificultad:PrincipiantePrincipiante

guisado

tuner correct add songbook print version text version salvar en e-mail
acordesukuleletablaturabaixobateriaarmónicaflautacavacopiano Guitar Pro
acordes

She

Áño: 1994 - Álbum: Dookie

	                                        She - Green Day 
 
 
 
intro e verso 1(baixo) 
 
 
verso 1 
E|----------------------------------------|  
B|----------------------------------------|  
G|----------------------------------------|  
D|--4-4-4-4-4-4-4-4-4-4-4-4-4-------------|  
A|--4-4-4-4-4-4-4-4-4-4-4-4-4-------------|  
E|--2-2-2-2-2-2-2-2-2-2-2-2-2-------------| 
pm  - - - - - - - - -  
 
 
Refrão 
E|----------------------------------------|  
B|----------------------------------------|  
G|--6-6-6-6-6-6-6-6--4-4-4-4--------------|  
D|--6-6-6-6-6-6-6-6--4-4-4-4--4-4-4-4-4-4-| 2x 
A|--4-4-4-4-4-4-4-4--2-2-2-2--4-4-4-4-4-4-|  
E|----------------------------2-2-2-2-2-2-| 
 
 
E|-----------------------|  
B|-----------------------|  
G|--4-4-4-4--------------|  
D|--4-4-4-4--4-4-4-4-4-4-|  2x 
A|--2-2-2-2--4-4-4-4-4-4-|  
E|-----------2-2-2-2-2-2-| 
 
 
E|---------------------------------------|  
B|---------------------------------------|  
G|--4-4-4-4--------------6-6-6-6-6-6-6-6-|  
D|--4-4-4-4--4-4-4-4-4-4-6-6-6-6-6-6-6-6-|   
A|--2-2-2-2--4-4-4-4-4-4-4-4-4-4-4-4-4-4-|  
E|-----------2-2-2-2-2-2-----------------| 
 
 
verso 2 
 
E|----------------------------------------------------------------------------------------|  
B|----------------------------------------------------------------------------------------|  
G|-----------------------------6-6-6-6-6-6-6-6--4-4-4-4-4-4-4-4----------4----------------|  
D|--4-4-4-4-4-4-4-4-4-4-4-4-4--6-6-6-6-6-6-6-6--4-4-4-4-4-4-4-4--4-4-4-4-4-4-4-4-4--------| 2x 
A|--4-4-4-4-4-4-4-4-4-4-4-4-4--4-4-4-4-4-4-4-4--2-2-2-2-2-2-2-2--4-4-4-4-2-4-4-4-4--------|  
E|--2-2-2-2-2-2-2-2-2-2-2-2-2------------------------------------2-2-2-2---2-2-2-2--------| 
pm  - - - - - - - - - - - - -  - - - - - - - -  - - - - - - - -  - - - - - - - - -  
 
 
Refrão 
E|----------------------------------------|  
B|----------------------------------------|  
G|--6-6-6-6-6-6-6-6--4-4-4-4--------------|  
D|--6-6-6-6-6-6-6-6--4-4-4-4--4-4-4-4-4-4-| 2x 
A|--4-4-4-4-4-4-4-4--2-2-2-2--4-4-4-4-4-4-|  
E|----------------------------2-2-2-2-2-2-| 
 
 
E|-----------------------|  
B|-----------------------|  
G|--4-4-4-4--------------|  
D|--4-4-4-4--4-4-4-4-4-4-|  2x 
A|--2-2-2-2--4-4-4-4-4-4-|  
E|-----------2-2-2-2-2-2-| 
 
 
E|---------------------------------------|  
B|---------------------------------------|  
G|--4-4-4-4--------------6-6-6-6-6-6-6-6-|  
D|--4-4-4-4--4-4-4-4-4-4-6-6-6-6-6-6-6-6-|   
A|--2-2-2-2--4-4-4-4-4-4-4-4-4-4-4-4-4-4-|  
E|-----------2-2-2-2-2-2-----------------| 
 
 
parte só tocada 
E|----------------------------------------------------------------------------------------|  
B|----------------------------------------------------------------------------------------|  
G|-----------------------------6-6-6-6-6-6-6-6--4-4-4-4-4-4-4-4----------4----------------|  
D|--4-4-4-4-4-4-4-4-4-4-4-4-4--6-6-6-6-6-6-6-6--4-4-4-4-4-4-4-4--4-4-4-4-4-4-4-4-4--------| 2x 
A|--4-4-4-4-4-4-4-4-4-4-4-4-4--4-4-4-4-4-4-4-4--2-2-2-2-2-2-2-2--4-4-4-4-2-4-4-4-4--------|  
E|--2-2-2-2-2-2-2-2-2-2-2-2-2------------------------------------2-2-2-2---2-2-2-2--------| 
 
 
Refrão 
E|----------------------------------------|  
B|----------------------------------------|  
G|--6-6-6-6-6-6-6-6--4-4-4-4--------------|  
D|--6-6-6-6-6-6-6-6--4-4-4-4--4-4-4-4-4-4-| 2x 
A|--4-4-4-4-4-4-4-4--2-2-2-2--4-4-4-4-4-4-|  
E|----------------------------2-2-2-2-2-2-| 
 
 
E|-----------------------|  
B|-----------------------|  
G|--4-4-4-4--------------|  
D|--4-4-4-4--4-4-4-4-4-4-|  2x 
A|--2-2-2-2--4-4-4-4-4-4-|  
E|-----------2-2-2-2-2-2-| 
 
 
E|------------------------------------------|  
B|------------------------------------------|  
G|--4-4-4-4--------------6-6-6-6-6-6-6-6----|  
D|--4-4-4-4--4-4-4-4-4-4-6-6-6-6-6-6-6-6--4-|   
A|--2-2-2-2--4-4-4-4-4-4-4-4-4-4-4-4-4-4--4-|  
E|-----------2-2-2-2-2-2------------------2-| 
 
 
 
valeu!!! c axarem q ta errado me manda 1 e-mail([email protected]) 
 

	  

No existe una video leccione para esta canción

request
LosAcordes
Buscar
auto avanzar rasgueos aumentar disminuir cambiar color esconder acordes gráficos
losacordes exhibir acordes losacordes youTube video losacordes ocultar tabs losacordes ir hacia arriba losacordes