Glria

Incio > Glria > acordes

Vai Pagar Caro Por Me Conhecer (correo) Tablatura

Glria

Dificultad:Ningn gradoNingn grado

edsooliveira

tuner correct add songbook print version text version salvar en e-mail
acordesukuleletablaturabajobateraarmnicaflautacavacopiano Guitar Pro
acordes

Vai Pagar Caro Por Me Conhecer (correo)

	  Tom: C 
Afinao ( C G C F A D ) 

Riff da introduo: 
D|---------------------------------------------------------------|  
A|---------------------------------------------------------------|  
F|---------------------------------------------------------------|  
C|--------------------------------------------------------7^-----|  
G|-88888888-77777777-44444444-55555555-11111111-33333333--5------|  
C|---------------------------------------------------------------| 
                             			              pm----------. 

D|-----------------------------------------------------|  
A|-----------------------------------------------------|  
F|-----------------------------------------------------|  
C|-0-0-0-0-0-0-0-0-------------------------------------|      Varia vezes  
G|-0-0-0-0-0-0-0-0-------------------------------------|  
C|-0-0-0-0-0-0-0-0-------------------------------------|		    



Chegou a hora e eu no vou correr 

D|-----------------------------------------------------|  
A|-----------------------------------------------------|  
F|-----------------------------------------------------|  
C|-1-0----0-0---0-1-0----0-0---0-3-3-3-3-3-------------|  
G|-1-0----0-0---0-1-0----0-0---0-3-3-3-3-3-------------|  
C|-1-0----0-0---0-1-0----0-0---0-3-3-3-3-3-------------| 

No tenho medo pra te entregar 

D|-----------------------------------------------------|  
A|-----------------------------------------------------|  
F|-----------------------------------------------------|  
C|-1-0----0-0---0-1-0-----0-0---0-7-7-9-9--------------|  
G|-1-0----0-0---0-1-0-----0-0---0-5-5-7-7--------------|  
C|-1-0----0-0---0-1-0-----0-0---0-0-0-0-0--------------| 

Minha amnsia apagou voc 

D|-----------------------------------------------------|  
A|-----------------------------------------------------|  
F|-----------------------------------------------------|  
C|-1-0----0-0---0-1-0----0-0---0-3-3-3-3-3-------------|  
G|-1-0----0-0---0-1-0----0-0---0-3-3-3-3-3-------------|  
C|-1-0----0-0---0-1-0----0-0---0-3-3-3-3-3-------------| 

E Agora  minha vez de te falar 

D|-----------------------------------------------------|  
A|-----------------------------------------------------|  
F|-----------------------------------------------------|  
C|-1-0----0-0---0-1-0-----0-0---0-7-7-9-9--------------|  
G|-1-0----0-0---0-1-0-----0-0---0-5-5-7-7--------------|  
C|-1-0----0-0---0-1-0-----0-0---0-0-0-0-0--------------| 

Eu no vou acreditar no 
que voc me diz (eu no vou!) 
No que inventa para ser feliz (eu no vou!) 
Nesse seu mundo que vai te 
matar (eu no vou!) 

D|-----------------------------------------------------|  
A|-----------------------------------------------------|  
F|-----------------------------------------------------|  
C|-1-0----0-0---0-1-0-0-0-1-1-1-0----------------------| 4x 
G|-1-0----0-0---0-1-0-0-0-1-1-1-0----------------------|  
C|-1-0----0-0---0-1-0-0-0-1-1-1-0----------------------| 




Refro :  

Eu cansei, (cansei) 
Eu no consigo esperar voc (voc) 
Eu paguei caro para te esquecer (esquecer) 
De todos planos eu j desisti (WHOOAAHH!) 
Deixei pra trs tudo que consegui 

Na minha vida no vai mais entrar (entrar) 
Na sua vida no vou mais passar (passar) 
E se voc tentar me esquecer (WHOOAAHH!) 
Vai pagar caro por me conhecer 

D|----------------------------------------------------------------------------------|  
A|----------------------------------------------------------------------------------|  
F|-1-1-1-1-1-0-0-0-0-0--------------------------------------------------------------|  
C|-0-0-0-0-0-3-3-3-3-3-10-10-10-10-10-12-12-12-12-12--7-7-7-7-7---------------------| 2x 
G|-0-0-0-0-0-3-3-3-3-3-8--8--8--8--8--10-10-10-10-10--7-7-7-7-7---------------------|  
C|-0-0-0-0-0-3-3-3-3-3-8--8--8--8--8--10-10-10-10-10--7-7-7-7-7---------------------| 

1 bridge -  

D|-----------------------------------------------------|  
A|-----------------------------------------------------|  
F|-----------------------------------------------------|  
C|-0-0---0-0----------7--------------------------------| 4x 
G|-0-0---0-0---5-6-5-----6-5^--------------------------|  
C|-0-0---0-0-------------------------------------------| 


No venha dizer (NO!) o que eu 
fui pra voc (NO!) 
Pois eu no vou mudar (NO!) meu jeito de pensar (NO!) 


D|-----------------------------------------------------|  
A|-----------------------------------------------------|  
F|-------------1-1-1-1-1-1-----------------------------|  
C|-8-8-8-8-8-8-0-0-0-0-0-0--3-3-3-3-3-3----------------|  
G|-8-8-8-8-8-8-0-0-0-0-0-0--3-3-3-3-3-3----------------|  
C|-8-8-8-8-8-8-0-0-0-0-0-0--3-3-3-3-3-3----------------| 

No venha querer (NO!) 
tentar me convencer (NO!) 

Pois no tenho mais tempo de te aguentar! 

D|-----------------------------------------------------|  
A|-----------------------------------------------------|  
F|-----------------------------------------------------|  
C|-8-8-8-8-8-8---0-0-0---0-0---------------------------|  
G|-8-8-8-8-8-8---0-0-0---0-0---------------------------|  
C|-8-8-8-8-8-8---0-0-0---0-0---------------------------| 

solo : 

base: 


D|-----------------------------------------------------|  
A|-----------------------------------------------------|  
F|-------------1-1-1-1-1-1-----------------------------|  
C|-8-8-8-8-8-8-0-0-0-0-0-0--3-3-3-3-3-3----------------|  
G|-8-8-8-8-8-8-0-0-0-0-0-0--3-3-3-3-3-3----------------|  
C|-8-8-8-8-8-8-0-0-0-0-0-0--3-3-3-3-3-3----------------| 


D|-----------------------------------------------------|  
A|-----------------------------------------------------|  
F|-----------------------------------------------------|  
C|-8-8-8-8-8-8---0-0-0---0-0---------------------------|  
G|-8-8-8-8-8-8---0-0-0---0-0---------------------------|  
C|-8-8-8-8-8-8---0-0-0---0-0---------------------------| 



D|-----------------------------------------------------|  
A|-15^-15^-13-15---15-17-15-18-15-------- 18^----------|  
F|--------------------------------12^-14^- ------------|  
C|-----------------------------------------------------|  
G|-----------------------------------------------------|  
C|-----------------------------------------------------| 


D|-----------------------------------------------------|  
A|-----------------------------------------------------|  
F|-----------------------------------------------------|  
C|-15-14----14----14--12^------------------------------|  
G|-------15----15--------------------------------------|  
C|-----------------------------------------------------| 


D|-----------------------------------------------------|  
A|-----------------------------------------------------|  
F|-14-15-17-----------12-14-15-17^---------------------|  
C|----------12-14-15-----------------------------------|  
G|-----------------------------------------------------|  
C|-----------------------------------------------------| 



D|-----------------------------------------------------|  
A|-11-13-11-13-11-15-11-15-11-13-11-13-11-15^----------|  
F|-----------------------------------------------------|  
C|-----------------------------------------------------|  
G|-----------------------------------------------------|  
C|-----------------------------------------------------| 

Refro :  

Eu cansei, (cansei) 
Eu no consigo esperar voc (voc) 
Eu paguei caro para te esquecer (esquecer) 
De todos planos eu j desisti (WHOOAAHH!) 
Deixei pra trs tudo que consegui 

Na minha vida no vai mais entrar (entrar) 
Na sua vida no vou mais passar (passar) 
E se voc tentar me esquecer (WHOOAAHH!) 
Vai pagar caro por me conhecer 


D|----------------------------------------------------------------------------------|  
A|----------------------------------------------------------------------------------|  
F|-1-1-1-1-1-0-0-0-0-0--------------------------------------------------------------|  
C|-0-0-0-0-0-3-3-3-3-3-10-10-10-10-10-12-12-12-12-12--7-7-7-7-7---------------------| 2x 
G|-0-0-0-0-0-3-3-3-3-3-8--8--8--8--8--10-10-10-10-10--7-7-7-7-7---------------------|  
C|-0-0-0-0-0-3-3-3-3-3-8--8--8--8--8--10-10-10-10-10--7-7-7-7-7---------------------| 


2 bridge - 

D|-----------------------------------------------------|  
A|-----------------------------------------------------|  
F|-----------------------------------------------------|  
C|-1-0---0-0---0-1-0--0-0------------------------------| 5x 
G|-1-0---0-0---0-1-0--0-0------------------------------|  
C|-1-0---0-0---0-1-0--0-0------------------------------| 

D|-----------------------------------------------------|  
A|-----------------------------------------------------|  
F|-----------------------------------------------------|  
C|-----------------------------------------------------|  
G|-7-7-8^--6-6-7^--------------------------------------|  
C|-----------------------------------------------------| 


Refro : 

Eu cansei ! (cansei) 
Eu no consigo esperar voc (voc) 
Eu paguei caro para te esquecer (esquecer) 
De todos planos eu j desisti (WHOOAAHH!) 
Deixei pra trs tudo que consegui 


Na minha vida no vai mais entrar (entrar) 
Na sua vida no vou mais passar (passar) 
E se voc tentar me esquecer (WHOOAAHH!) 
Vai pagar caro por me conhecer 


a musica termina em : 


D|-----------------------------------------------------|  
A|-----------------------------------------------------|  
F|-----------------------------------------------------|  
C|-0---------------------------------------------------|  Deixe soar a nota final 
G|-0---------------------------------------------------|  
C|-0---------------------------------------------------| 
	  

No existe una video leccione para esta cancin

request
Aumentar uno tonoAumentar uno tono
Aumentar uno semi-tonoAumentar uno semi-tono
Disminuir uno semi-tonoDisminuir uno semi-tono
Disminuir uno tonoDisminuir uno semi-tono
LosAcordes
Buscar
auto avanzar rasgueos aumentar disminuir cambiar color esconder acordes grficos
losacordes exhibir acordes losacordes youTube video losacordes ocultar tabs losacordes ir hacia arriba losacordes