Glória

Início > Glória > acordes

Renascido Tablatura

Glória

Dificultad:Ningún gradoNingún grado

hebealmeida

tuner correct add songbook print version text version salvar en e-mail
acordesukuleletablaturabajobateríaarmónicaflautacavacopiano Guitar Pro
acordes

Renascido

	  

B|--------------------------------------------------------------------------------------------------| 
F|--------------------------------------------------------------------------------------------------| 
B|--------------------------------------------------------------------------------------------------| 
E|----------------------------20------------20------------20----------------------------------------| 
G|---18--18---21---18--21-----------21------------21------------21-----20---------------------------| 
C|--------------------------------------------------------------------------------------------------| 

B|----------------------------------------------------------------------------------------------------| 
F|---------------------------------------------------------------------------------------------------| 
B|----------------------------------------------------------------------------------------------------| 
E|---------------------------------------20------------20------------20-------------------------------| 
G|-----------------21-------------21-------------21------------21-----------21-----20----------------| 
C|-----21----21-----------21-------------------------------------------------------------------------| 

B|----------------------------------------------------------------------------------------------------| 
F|-----/12--12--12~-----12p10-----10--10--10\8---8---8----8\7--------7h8p7---------------------------| 
B|----------------------------------------------------------------------------------------------------| 
E|----------------------------------------------------------------------------------------------------| 
G|---------------------------------------------------------------------------------------------------| 
C|---------------------------------------------------------------------------------------------------| 

B|----------------------------------------------------------------------------------------------------| 
F|---3----3/5------7---7----7/8-----8---8---8/10------10---10----10/12-------12---12---12/15~~-------| 
B|----------------------------------------------------------------------------------------------------| 
E|----------------------------------------------------------------------------------------------------| 
G|---------------------------------------------------------------------------------------------------| 
C|---------------------------------------------------------------------------------------------------| 
	  

No existe una video leccione para esta canción

request
LosAcordes
Buscar
auto avanzar rasgueos aumentar disminuir cambiar color esconder acordes gráficos
losacordes exhibir acordes losacordes youTube video losacordes ocultar tabs losacordes ir hacia arriba losacordes