Glória

Início > Glória > acordes

Minha Paz Tablatura

Glória

Dificultad:ExpertoExperto

renejunior

tuner correct add songbook print version text version salvar en e-mail
acordesukuleletablaturabajobateríaarmónicaflautacavacopiano Guitar Pro
acordes

Minha Paz

	  Minha Paz 

Guitarra 1 

INTRO: 

Tente me olhar... 
e|---------------------------------------------------------------- 
B|---------------------------------------------------------------- 
G|-----------8~--------------8~------------------4~-----------4~--  (3x) 
D|-----6---------------6-------------------2------------2--------- 
A|--4-----4---------4-----4-------------0-----0------0-----0------ 
E|---------------------------------------------------------------- 

Se o tempo parar... 
e|----------------------------------------------------------------- 
B|----------------------------------------------------------------- 
G|----------------------------------------------------------------- 
D|--4-4-4-4-4-4-4-4-4-4-4-4---6---7-7-7-7-7-7-7-7-7-7-7-7---------- 2X 
A|--4-4-4-4-4-4-4-4-4-4-4-4---6---7-7-7-7-7-7-7-7-7-7-7-7---------- 
E|--2-2-2-2-2-2-2-2-2-2-2-2---4---5-5-5-5-5-5-5-5-5-5-5-5---------- 

Hoje perco voce... 
e|---------------------------------------------------------- 
B|-------------7-9-12-9--12--------------------------------- 
G|------------9-9-9---9-9----------------------------------- 
D|-6-6-6-6--------------------------------------------------(2x) 
A|-4-4-4-4-------------------------------------------------- 
E|---------------------------------------------------------- 


coro: 

Viver... 
e|---------------------------------------------------------- 
B|-9-9-9-7-7-7-7-7-12-12-12-9-9-9-7-7-7--------------------- 
G|-9-9-9-9-9-9-9-9-9--9--9--9-9-9-9-9-9--------------------- 3X 
D|---------------------------------------------------------- 
A|---------------------------------------------------------- 
E|---------------------------------------------------------- 

E só mais uma vez... 
e|---------------------------------------------------------- 
B|---------------------------------------------------------- 
G|----------8-8-8-8-8-8-8-8-8-8-8-8------------------------- 
D|----------x-x-x-x-x-x-x-x-x-x-x-x------------------------- 
A|----------6-6-6-6-6-6-6-6-6-6-6-6------------------------- 
E|---------------------------------------------------------- 

Repete intro: 

Deixa eu te falar... 
E|--------------------------------------------------| 
B|--------------------------------------------------| 
G|--------8----------8----------4----------4--------| 
D|----6----------6----------2----------2------------| 
A|--4---4------4---4------0---0------0---0----------| 
E|--------------------------------------------------| 


Se o tempo parar... 
e|----------------------------------------------------------------- 
B|----------------------------------------------------------------- 
G|----------------------------------------------------------------- 
D|--4-4-4-4-4-4-4-4-4-4-4-4---6---7-7-7-7-7-7-7-7-7-7-7-7---------- 2X 
A|--4-4-4-4-4-4-4-4-4-4-4-4---6---7-7-7-7-7-7-7-7-7-7-7-7---------- 
E|--2-2-2-2-2-2-2-2-2-2-2-2---4---5-5-5-5-5-5-5-5-5-5-5-5---------- 

Outra vez... 
e|---------------------------------------------------------- 
B|-------------7-9-12-9--12--------------------------------- 
G|------------9-9-9---9-9----------------------------------- 
D|-6-6-6-6--------------------------------------------------(2x) 
A|-4-4-4-4-------------------------------------------------- 
E|---------------------------------------------------------- 

Nunca mais... 
e|----------------------------------------------------------------- 
B|----------------------------------------------------------------- 
G|----------------------------------------------------------------- 
D|--4-4-4-4-4-4-4-4-4-4-4-4---6---7-7-7-7-7-7-7-7-7-7-7-7---------- 2X 
A|--4-4-4-4-4-4-4-4-4-4-4-4---6---7-7-7-7-7-7-7-7-7-7-7-7---------- 
E|--2-2-2-2-2-2-2-2-2-2-2-2---4---5-5-5-5-5-5-5-5-5-5-5-5---------- 


coro: 

Viver... 
e|----------------------------------------------------------------- 
B|----------------------------------------------------------------- 
G|--------------------------6-6-6-6-6-6-6-6-6---------------------- 
D|--2-2-2-2-2-2-2-2-2-2-2-2-6-6-6-6-6-6-6-6-6-7-7-7-7-7-7-7-7-7-7-- 
A|--2-2-2-2-2-2-2-2-2-2-2-2-4-4-4-4-4-4-4-4-4-7-7-7-7-7-7-7-7-7-7-- 
E|--0-0-0-0-0-0-0-0-0-0-0-0-------------------5-5-5-5-5-5-5-5-5-5-- dexar soar ultima... 
    XXXXXXXXXXXXXXXXXXXXXXXXXXXXXXXXXXXXXXXXXXXXXXXXXXXXXXXXXXX 

Viver... 
e|---------------------------------------------------------- 
B|-9-9-9-7-7-7-7-7-12-12-12-9-9-9-7-7-7--------------------- 
G|-9-9-9-9-9-9-9-9-9--9--9--9-9-9-9-9-9--------------------- 3X 
D|---------------------------------------------------------- 
A|---------------------------------------------------------- 
E|---------------------------------------------------------- 

E só mais uma vez... 
e|---------------------------------------------------------- 
B|---------------------------------------------------------- 
G|----------8-8-8-8-8-8-8-8-8-8-8-8------------------------- 
D|----------x-x-x-x-x-x-x-x-x-x-x-x------------------------- 
A|----------6-6-6-6-6-6-6-6-6-6-6-6------------------------- 
E|---------------------------------------------------------- 

MAis uma vez... 
e|-----------xx-7-xx-7-xx-5-xx-5-xx-5-x--------------------- 
B|---------------------------------------------------------- 
G|----------------------------------------------------------7X 
D|---------------------------------------------------------- 
A|---------------------------------------------------------- 
E|---------------------------------------------------------- 


Guitarra 2 

Intro: 

e|---------------------------------------------------------------- 
B|---------------------------------------------------------------- 
G|-----------8~--------------8~------------------4~-----------4~--  (3x) 
D|-----6---------------6-------------------2------------2--------- 
A|--4-----4---------4-----4-------------0-----0------0-----0------ 
E|---------------------------------------------------------------- 

        F#5                  G#5 A#5 
e|----------------------------------------------------------------- 
B|----------------------------------------------------------------- 
G|----------------------------------------------------------------- 
D|--4-4-4-4-4-4-4-4-4-4-4-4---6---7-7-7-7-7-7-7-7-7-7-7-7---------- 
A|--4-4-4-4-4-4-4-4-4-4-4-4---6---7-7-7-7-7-7-7-7-7-7-7-7---------- 
E|--2-2-2-2-2-2-2-2-2-2-2-2---4---5-5-5-5-5-5-5-5-5-5-5-5---------- 


       F#5                   G#5      A#5                   B5 
e|---------------------------------------------------------------- 
B|---------------------------------------------------------------- 
G|---------------------------------------------------------------- 
D|--4-4-4-4-4-4-4-4-4-4-4-4---6---7-7-7-7-7-7-7-7-7-7-7-7-9-9-9--- 
A|--4-4-4-4-4-4-4-4-4-4-4-4---6---7-7-7-7-7-7-7-7-7-7-7-7-9-9-9--- 
E|--2-2-2-2-2-2-2-2-2-2-2-2---4---5-5-5-5-5-5-5-5-5-5-5-5-7-7-7--- 


   C#5                   A5 
e|---------------------------------------------------------- 
B|---------------------------------------------------------- 
G|-6-6-6-6---2-2-2-2-2-2-2-2-2-2-2-2-2----------------------- 
D|-6-6-6-6---2-2-2-2-2-2-2-2-2-2-2-2-2-----------------------(2x) 
A|-4-4-4-4---0-0-0-0-0-0-0-0-0-0-0-0-0----------------------- 
E|---------------------------------------------------------- 


ESTRIBILHO 

    E5                                     C#5 
e|------------------------------------------------------------- 
B|------------------------------------------------------------- 
G|-9-9-9-9-9-9-9-9-9-9-9-9-9-9-6-6-6-6-6-6-6-6-6-6-6-6-6-6------ 
D|-9-9-9-9-9-9-9-9-9-9-9-9-9-9-6-6-6-6-6-6-6-6-6-6-6-6-6-6------ 
A|-7-7-7-7-7-7-7-7-7-7-7-7-7-7-4-4-4-4-4-4-4-4-4-4-4-4-4-4------ 
E|------------------------------------------------------------- 


      A5                                                                                                B5 
e|----------------------------------------------------------------------------------------------- 
B|----------------------------------------------------------------------------------------------- 
G|----------------------------------------------------------------------------------------------- 
D|-7-7-7-7-7-7-7-7-7-7-7-7-7-7-7-7-7-7-7-7-7-7-9-9-9-9-9-9-9-9-9-9-9-9-9-9-9-9-9-9-9-9-9-9-------- 
A|-7-7-7-7-7-7-7-7-7-7-7-7-7-7-7-7-7-7-7-7-7-7-9-9-9-9-9-9-9-9-9-9-9-9-9-9-9-9-9-9-9-9-9-9-------- 
E|-5-5-5-5-5-5-5-5-5-5-5-5-5-5-5-5-5-5-5-5-5-5-7-7-7-7-7-7-7-7-7-7-7-7-7-7-7-7-7-7-7-7-7-7-------- 

   C#5                                                    A9 
e|---------------------------------------------------------------- 
B|---------------------------------------------------------------- 
G|---------6~-------------6~--------------2~----------2~----------(3x) 
D|----6--------------6----------------2-----------2--------------- 
A|--4---4---------4----4------------0---0-------0---0------------- 
E|---------------------------------------------------------------- 



   F#5                                      G#5 A#5 
e|-------------------------------------------------------- 
B|-------------------------------------------------------- 
G|-------------------------------------------------------- 
D|--4-4-4-4-4-4-4-4-4-4-4-4---6---7-7-7-7-7-7-7-7-7-7-7-7- 
A|--4-4-4-4-4-4-4-4-4-4-4-4---6---7-7-7-7-7-7-7-7-7-7-7-7- 
E|--2-2-2-2-2-2-2-2-2-2-2-2---4---5-5-5-5-5-5-5-5-5-5-5-5- 




    E5                                         C#5 
e|--------------------------------------------------------- 
B|--------------------------------------------------------- 
G|-9-9-9-9-9-9-9-9-9-9-9-9-9-9-6-6-6-6-6-6-6-6-6-6-6-6-6-6-- 
D|-9-9-9-9-9-9-9-9-9-9-9-9-9-9-6-6-6-6-6-6-6-6-6-6-6-6-6-6-- 
A|-7-7-7-7-7-7-7-7-7-7-7-7-7-7-4-4-4-4-4-4-4-4-4-4-4-4-4-4-- 
E|--------------------------------------------------------- 


      A5                                             B5 
e|----------------------------------------------------------------------------------------------- 
B|----------------------------------------------------------------------------------------------- 
G|----------------------------------------------------------------------------------------------- 
D|-7-7-7-7-7-7-7-7-7-7-7-7-7-7-7-7-7-7-7-7-7-7-9-9-9-9-9-9-9-9-9-9-9-9-9-9-9-9-9-9-9-9-9-9-------- 
A|-7-7-7-7-7-7-7-7-7-7-7-7-7-7-7-7-7-7-7-7-7-7-9-9-9-9-9-9-9-9-9-9-9-9-9-9-9-9-9-9-9-9-9-9-------- 
E|-5-5-5-5-5-5-5-5-5-5-5-5-5-5-5-5-5-5-5-5-5-5-7-7-7-7-7-7-7-7-7-7-7-7-7-7-7-7-7-7-7-7-7-7-------- 



   C#5                             A5 
e|----------------------------------------------------------------- 
B|----------------------------------------------------------------- 
G|-6-6-6-6----6-6-6-6--------2-2-2-2-2-2-2-2-2-2-2-2-2-------------- 
D|-6-6-6-6----6-6-6-6--------2-2-2-2-2-2-2-2-2-2-2-2-2-------------- (2x) 
A|-4-4-4-4----4-4-4-4--------0-0-0-0-0-0-0-0-0-0-0-0-0-------------- 
E|----------------------------------------------------------------- 

e|--------------------------------------------------------------------- 
B|--------------------------------------------------------------------- 
G|--------------------------------------------------------------------- 
D|-4-4-4-4-4-4-4-4-4-4-4-4-4-4-4-4-4-7-7-7-7-7-7-7-7-7-7-7-7-7-7-7-7---- 
A|-4-4-4-4-4-4-4-4-4-4-4-4-4-4-4-4-4-7-7-7-7-7-7-7-7-7-7-7-7-7-7-7-7---- 
E|-2-2-2-2-2-2-2-2-2-2-2-2-2-2-2-2-2-5-5-5-5-5-5-5-5-5-5-5-5-5-5-5-5---- 


        E5                             C#5                         A5                    Am 
e|----------------------------------------------------------------------------------------------- 
B|---------------------------------------------------------------------------------------1------- 
G|-9-9-9-9-9-9-9-9-9-9-9-9-9-9-6-6-6-6-6-6-6-6-6-6-6-6-6-6--------------------------------2------- 
D|-9-9-9-9-9-9-9-9-9-9-9-9-9-9-6-6-6-6-6-6-6-6-6-6-6-6-6-6-7-7-7-7-7-7-7-7-7-7-7-7-7-7----2------- 
A|-7-7-7-7-7-7-7-7-7-7-7-7-7-7-4-4-4-4-4-4-4-4-4-4-4-4-4-4-7-7-7-7-7-7-7-7-7-7-7-7-7-7------------ 
E|--------------------------------------------------------5-5-5-5-5-5-5-5-5-5-5-5-5-5------------ 

   XXXXXXXXXXXXXXXXXXXXXXXXXXXXXXXXXXXXXXXXXXXXXXXXXXXXXXXXXXXXXXXXXXXXXXXXXXXXXXXXXXX 

    E5                                      C#5 
e|--------------------------------------------------------- 
B|--------------------------------------------------------- 
G|-9-9-9-9-9-9-9-9-9-9-9-9-9-9-6-6-6-6-6-6-6-6-6-6-6-6-6-6-- 
D|-9-9-9-9-9-9-9-9-9-9-9-9-9-9-6-6-6-6-6-6-6-6-6-6-6-6-6-6-- 
A|-7-7-7-7-7-7-7-7-7-7-7-7-7-7-4-4-4-4-4-4-4-4-4-4-4-4-4-4-- 
E|--------------------------------------------------------- 

      A5                                                                                                B5 
e|----------------------------------------------------------------------------------------------- 
B|----------------------------------------------------------------------------------------------- 
G|----------------------------------------------------------------------------------------------- 
D|-7-7-7-7-7-7-7-7-7-7-7-7-7-7-7-7-7-7-7-7-7-7-9-9-9-9-9-9-9-9-9-9-9-9-9-9-9-9-9-9-9-9-9-9-------- 
A|-7-7-7-7-7-7-7-7-7-7-7-7-7-7-7-7-7-7-7-7-7-7-9-9-9-9-9-9-9-9-9-9-9-9-9-9-9-9-9-9-9-9-9-9-------- 
E|-5-5-5-5-5-5-5-5-5-5-5-5-5-5-5-5-5-5-5-5-5-5-7-7-7-7-7-7-7-7-7-7-7-7-7-7-7-7-7-7-7-7-7-7-------- 

        E5                            C#5                          A5                    Am 
e|-------------------------------------------------------------------------------------------------------------------------- 
B|---------------------------------------------------------------------------------------1------ 
G|-9-9-9-9-9-9-9-9-9-9-9-9-9-9-6-6-6-6-6-6-6-6-6-6-6-6-6-6--------------------------------2------ 
D|-9-9-9-9-9-9-9-9-9-9-9-9-9-9-6-6-6-6-6-6-6-6-6-6-6-6-6-6-7-7-7-7-7-7-7-7-7-7-7-7-7-7----2------ 
A|-7-7-7-7-7-7-7-7-7-7-7-7-7-7-4-4-4-4-4-4-4-4-4-4-4-4-4-4-7-7-7-7-7-7-7-7-7-7-7-7-7-7----------- 
E|--------------------------------------------------------5-5-5-5-5-5-5-5-5-5-5-5-5-5----------- 

    E5                                       C#5 
e|--------------------------------------------------------- 
B|--------------------------------------------------------- 
G|-9-9-9-9-9-9-9-9-9-9-9-9-9-9-6-6-6-6-6-6-6-6-6-6-6-6-6-6-- 
D|-9-9-9-9-9-9-9-9-9-9-9-9-9-9-6-6-6-6-6-6-6-6-6-6-6-6-6-6-- 
A|-7-7-7-7-7-7-7-7-7-7-7-7-7-7-4-4-4-4-4-4-4-4-4-4-4-4-4-4-- 
E|--------------------------------------------------------- 

      A5                                                                                                B5 
e|----------------------------------------------------------------------------------------------- 
B|----------------------------------------------------------------------------------------------- 
G|----------------------------------------------------------------------------------------------- 
D|-7-7-7-7-7-7-7-7-7-7-7-7-7-7-7-7-7-7-7-7-7-7-9-9-9-9-9-9-9-9-9-9-9-9-9-9-9-9-9-9-9-9-9-9-------- 
A|-7-7-7-7-7-7-7-7-7-7-7-7-7-7-7-7-7-7-7-7-7-7-9-9-9-9-9-9-9-9-9-9-9-9-9-9-9-9-9-9-9-9-9-9-------- 
E|-5-5-5-5-5-5-5-5-5-5-5-5-5-5-5-5-5-5-5-5-5-5-7-7-7-7-7-7-7-7-7-7-7-7-7-7-7-7-7-7-7-7-7-7-------- 

          E5                           C#5                         A5                   Am 
e|-------------------------------------------------------------------------------------------------------------------------- 
B|---------------------------------------------------------------------------------------1-- 
G|-9-9-9-9-9-9-9-9-9-9-9-9-9-9-6-6-6-6-6-6-6-6-6-6-6-6-6-6--------------------------------2-- 
D|-9-9-9-9-9-9-9-9-9-9-9-9-9-9-6-6-6-6-6-6-6-6-6-6-6-6-6-6-7-7-7-7-7-7-7-7-7-7-7-7-7-7----2-- 
A|-7-7-7-7-7-7-7-7-7-7-7-7-7-7-4-4-4-4-4-4-4-4-4-4-4-4-4-4-7-7-7-7-7-7-7-7-7-7-7-7-7-7------- 
E|--------------------------------------------------------5-5-5-5-5-5-5-5-5-5-5-5-5-5------- 
	  

No existe una video leccione para esta canción

request
Aumentar uno tonoAumentar uno tono
Aumentar uno semi-tonoAumentar uno semi-tono
Disminuir uno semi-tonoDisminuir uno semi-tono
Disminuir uno tonoDisminuir uno semi-tono
LosAcordes
Buscar
auto avanzar rasgueos aumentar disminuir cambiar color esconder acordes gráficos
losacordes exhibir acordes losacordes youTube video losacordes ocultar tabs losacordes ir hacia arriba losacordes