Glória

Início > Glória > acordes

Máscaras, Vidro E Um Pouco De Angústia Tablatura

Glória

Dificultad:IntermedioIntermedio

bombaXXX

tuner correct add songbook print version text version salvar en e-mail
acordesukuleletablaturabajobateríaarmónicaflautacavacopiano Guitar Pro
acordes

Máscaras, Vidro E Um Pouco De Angústia

	  Afinação: D (RÉ) 

Intro: Bb C D 

|----------------------------------------| 
|----------------------------------------| 
|-3~--5~--7~-----------------------------| 
|-3~--5~--7~-2/0/3/0/5/0/7/0/8/0/7/0/5/0-| (3x) 
|-1~--3~--5~-----------------------------| 
|----------------------------------------| 

Bb C D 
|---------------------------------------------------------------------------------| 
|---------------------------------------------------------------------------------| 
|-3~--5~--7-7---------------------------------------------------------------------| 
|-3~--5~--7-7-2/0/3/0/5/0/7/0/8/0/7/0/5/0/7/0/5/0/3/0/5/0/3/0/2/0/3/0/2/0---------| 
|-1~--3~--5-5-------------------------------------------------------------/5~~~~~-| 
|---------------------------------------------------------------------------------| 

D 
|--------------| 
|--------------| 
|--------------| 
|--------------| 
|-3/5-5-5-5-5--| 
|--------------| 
     PM________| 

D 
Tenho em mim a pior dor, tenho a dor da decepção 
|------------------------| 
|------------------------| 
|------------------------| 
|-7-7-7-/0/2/0/3/0/3/0/2-| (2x) 
|-5-5-5------------------| 
|------------------------| 

D                        Bb 
|-------------------------------------| 
|-------------------------------------| 
|-------------------------------------| 
|-7-7-7-/0/2/0/3/0/3/0/2-3-3-3-3-3-3/-| 
|-5-5-5------------------1-1-1-1-1-1/-| 
|-------------------------------------| 

Tenho a dor e carrego e sou punido e o que eu sonhei não pode ser em vão 
|------------------------| 
|------------------------| 
|------------------------| 
|-7-7-7-/0/2/0/3/0/3/0/2-| (2x) 
|-5-5-5------------------| 
|------------------------| 

D                        Bb 
|------------------------------------| 
|------------------------------------| 
|------------------------------------| 
|-7-7-7-/0/2/0/3/0/3/0/2-3-3-3-3-3-3-| 
|-5-5-5------------------1-1-1-1-1-1-| 
|------------------------------------| 

Bb 
|-------------| 
|-------------| 
|-------------| 
|-3-3-3-3-3-3-| 
|-1-1-1-1-1-1-| 
|-------------| 

Bb   C     D  Bb    C     D 
Tentar fingir, não ter rancor! 
|-------------------------------------------------------------------------------------------| 
|-------------------------------------------------------------------------------------------| 
|-5/7-7-7-7-7/5-5-5-5/7-7-7-7-7/9-9-9-9/10-10-10-10-10-10-10-10-10-10-10-10-10-10-10-10-10-| 
|-X/X-X-X-X-X/X-X-X-X/X-X-X-X-X/X-X-X-X/X--X--X--X--X--X--X--X--X--X--X--X--X--X--X--X--X--| 
|-3/5-5-5-5-5/3-3-3-3/5-5-5-5-5/7-7-7-7/8--8--8--8--8--8--8--8--8--8--8--8--8--8--8--8--8 -| 
|-------------------------------------------------------------------------------------------| 

      D                 F         Bb     C 
Então venha a dor, me faça sofrer (NUNCA MAIS) 
      D               F         Bb         C 
Então venha a dor que faz sentir,Tudo que importa (NUNCA MAIS) 
|--------------------------------------------------------------------------------------------------------------------| 
|-6-6-6-6-6-6/8-8-8-8-8/10-10-10-10-10-10-10-10-10/11-11-11-11-11-11-11-11-11/13-13-13-13-13-13-13-13-13-13-13-13-13-| 
|-x-x-x-x-x-x/x-x-x-x-x/x--x--x--x--x--x--x--x--x-/x--x--x--x--x--x--x--x--x-/x--x--x--x--x--x--x--x--x--x--x--x--x--| 
|-3-3-3-3-3-3/5-5-5-5-5/7--7--7--7--7--7--7--7--7-/8--8--8--8--8--8--8--8--8-/10-10-10-10-10-10-10-10-10-10-10-10-10-| 
|--------------------------------------------------------------------------------------------------------------------| 
|--------------------------------------------------------------------------------------------------------------------| 

D           F             Bb             C                    D 
Sentir o gosto e eu sofro Sentir o amargo, que nunca vai passar 
                   F              Bb            C                 D 
Queimei minhas mãos e sangro De um sorriso falso que nunca vai mudar 
|----------------|-----------------------------------------------------------------------------------------------------|------| 
|----------------|-10/11-10/11-10/11-10/11-10/11-10/11-10/11-10/11-12/13-12/13-12/13-12/13-12/13-12/13-12/13-12/13-(4x)|------| 
|-------10-12-10-|-----------------------------------------------------------------------------------------------------|-10~~-| 
|-10-12----------|-----------------------------------------------------------------------------------------------------|------| 
|----------------|-----------------------------------------------------------------------------------------------------|------| 
|----------------|-----------------------------------------------------------------------------------------------------|------| 

D 

|-----------------------------------------------------------------------12~---| 
|-----------------------------------------------------------------------13~---| 
|-10-9-8-10-9-8-10-9-8-10-9-8-10-9-8~-10-9-8-10-9-8-10-9-8-10-9-8-10-9--12~---| 
|-----------------------------------------------------------------------------| 
|-----------------------------------------------------------------------------| 
|-----------------------------------------------------------------------------| 

D 
Outro meio de sorrir Mais uma máscara caída no chão 
Rasgo todas palavras,Corto com vidro minhas mãos 

Sentindo, o mais forte, só pra tentar 
|-------------------------------------------------------------| 
|-------------------------------------------------------------| 
|-7-7/9-9/10-9-7~-7-7/9-9/10-9-7~-7-7/9-9/10-10/12--10-9-7~~--| 
|-x-x/x-x/x--x-x~-x-x/x-x/x--x-x~-x-x/x-x/x--x-/x---x--x-x~~--| 
|-5-5/7-7/8--7-5~-5-5/7-7/8--7-5~-5-5/7-7/8--8-/10--8--7-5~~--| 
|-------------------------------------------------------------| 

      D                 F         Bb     C 
Então venha a dor, me faça sofrer (NUNCA MAIS) 
      D               F         Bb         C 
Então venha a dor que faz sentir,Tudo que importa (NUNCA MAIS) 
|--------------------------------------------------------------------------------------------------------------------| 
|-6-6-6-6-6-6/8-8-8-8-8/10-10-10-10-10-10-10-10-10/11-11-11-11-11-11-11-11-11/13-13-13-13-13-13-13-13-13-13-13-13-13-| 
|-x-x-x-x-x-x/x-x-x-x-x/x--x--x--x--x--x--x--x--x-/x--x--x--x--x--x--x--x--x-/x--x--x--x--x--x--x--x--x--x--x--x--x--| 
|-3-3-3-3-3-3/5-5-5-5-5/7--7--7--7--7--7--7--7--7-/8--8--8--8--8--8--8--8--8-/10-10-10-10-10-10-10-10-10-10-10-10-10-| 
|--------------------------------------------------------------------------------------------------------------------| 
|--------------------------------------------------------------------------------------------------------------------| 

D           F             Bb             C                    D 
Sentir o gosto e eu sofro Sentir o amargo, que nunca vai passar 
                   F              Bb            C                 D 
Queimei minhas mãos e sangro De um sorriso falso que nunca vai mudar 
|----------------|-----------------------------------------------------------------------------------------------------| 
|----------------|-10/11-10/11-10/11-10/11-10/11-10/11-10/11-10/11-12/13-12/13-12/13-12/13-12/13-12/13-12/13-12/13-(3x)| 
|-------10-12-10-|-----------------------------------------------------------------------------------------------------| 
|-10-12----------|-----------------------------------------------------------------------------------------------------| 
|----------------|-----------------------------------------------------------------------------------------------------| 
|----------------|-----------------------------------------------------------------------------------------------------| 

|------------------------------------------------------------------------------------------------------------| 
|-14/15-14/15-14/15-14/15-14/15-14/15-14/15-14/15-16/17-16/17-16/17-16/17-16/17-16/17-16/17-16/17------------| 
|---------------------------------------------------------------------------------------------------14~~~~~--| 
|------------------------------------------------------------------------------------------------------------| 
|------------------------------------------------------------------------------------------------------------| 
|------------------------------------------------------------------------------------------------------------| 


|------------------------------------------------------| 
|------------------------------------------------------| 
|-10-10-10-10-9-9-9-9----12-12-12-12-7-7-7-7-9/10-10h--| (3x) 
|-x--x--x--x--x-x-x-x----x--x--x--x--x-x-x-x-x/x-------| 
|-8--8--8--8--7-7-7-7-7h-10-10-10-10-5-5-5-5-7/8-------| 
|------------------------------------------------------| 

|------------------------------------0~~~--| 
|------------------------------------0~~~--| 
|-10-10-10-10-9-9-9-9----12-12-12-12-0~~~--| 
|-x--x--x--x--x-x-x-x----x--x--x--x--------| 
|-8--8--8--8--7-7-7-7-7h-10-10-10-10-------| 
|------------------------------------------| 


      D                 F         Bb     C 
Então venha a dor, me faça sofrer (NUNCA MAIS) 
      D               F         Bb         C 
Então venha a dor que faz sentir,Tudo que importa (NUNCA MAIS) 
|--------------------------------------------------------------------------------------------------------------------| 
|-6-6-6-6-6-6/8-8-8-8-8/10-10-10-10-10-10-10-10-10/11-11-11-11-11-11-11-11-11/13-13-13-13-13-13-13-13-13-13-13-13-13-| 
|-x-x-x-x-x-x/x-x-x-x-x/x--x--x--x--x--x--x--x--x-/x--x--x--x--x--x--x--x--x-/x--x--x--x--x--x--x--x--x--x--x--x--x--| 
|-3-3-3-3-3-3/5-5-5-5-5/7--7--7--7--7--7--7--7--7-/8--8--8--8--8--8--8--8--8-/10-10-10-10-10-10-10-10-10-10-10-10-10-| 
|--------------------------------------------------------------------------------------------------------------------| 
|--------------------------------------------------------------------------------------------------------------------| 

D           F             Bb             C                    D 
Sentir o gosto e eu sofro Sentir o amargo, que nunca vai passar 
                   F              Bb            C                 D 
Queimei minhas mãos e sangro De um sorriso falso que nunca vai mudar 
|------------------------------------------------------------------10-10-10-10~----------------------------------------------------------| 
|-------------10-10-11-10-----------------------------10-----------------------10~--------------------------------10~-10-----------------| 
|-------10-12-------------12-10-10~----10----10-----12---12-10---------------------12~-10----10--------10----10----------12-10-12--------| 
|-10-12-----------------------------12----12----12~------------12~------------------------12----12~-12----12----12----------------12~~~-| 
|----------------------------------------------------------------------------------------------------------------------------------------| 
|----------------------------------------------------------------------------------------------------------------------------------------| 


Final 

D 
|--------------| 
|--------------| 
|--------------| 
|--------------| 
|-3/5-5-5-5-5--| 
|--------------| 
     PM________| 

D 
|------------------------| 
|------------------------| 
|------------------------| 
|-7-7-7-/0/2/0/3/0/3/0/2-| (2x) 
|-5-5-5------------------| 
|------------------------| 

D                        Bb 
|-------------------------------------| 
|-------------------------------------| 
|-------------------------------------| 
|-7-7-7-/0/2/0/3/0/3/0/2-3-3-3-3-3-3/-| 
|-5-5-5------------------1-1-1-1-1-1/-| 
|-------------------------------------| 


Bb           C        Bb       C          Bb        C         D         F                             E7 D~~~ 
|---------------------------------------------------------------------------------------------------------------| 
|---------------------------------------------------------------------------------------------------------------| 
|-3-3-3-3-3-5-5-5-5-5-3-3-3-3-3-5-5-5-5-5-3-3-3-3-3-5-5-5-5-5-7-7-7-7-7-10-10-10-10-10-10-10-10-10-10~-9~-7~~~--| 
|-3-3-3-3-3-5-5-5-5-5-3-3-3-3-3-5-5-5-5-5-3-3-3-3-3-5-5-5-5-5-7-7-7-7-7-10-10-10-10-10-10-10-10-10- x~-x~-x~~~--| 
|-1-1-1-1-1-3-3-3-3-3-1-1-1-1-1-3-3-3-3-3-1-1-1-1-1-3-3-3-3-3-5-5-5-5-5--8--8--8--8--8--8--8--8--8--8~-7~-5~~~--| 
|---------------------------------------------------------------------------------------------------------------| 
	  

No existe una video leccione para esta canción

request
Aumentar uno tonoAumentar uno tono
Aumentar uno semi-tonoAumentar uno semi-tono
Disminuir uno semi-tonoDisminuir uno semi-tono
Disminuir uno tonoDisminuir uno semi-tono
LosAcordes
Buscar
auto avanzar rasgueos aumentar disminuir cambiar color esconder acordes gráficos
losacordes exhibir acordes losacordes youTube video losacordes ocultar tabs losacordes ir hacia arriba losacordes