Glória

Início > Glória > acordes

Bad Romance Tablatura

Glória

Dificultad:Ningún gradoNingún grado

hebealmeida

tuner correct add songbook print version text version salvar en e-mail
acordesukuleletablaturabajobateríaarmónicaflautacavacopiano Guitar Pro
acordes

Bad Romance

	  

Intro: 

(Parte 1) (ooh ooh ooh ooh oh oh caught in a bad romance...) 
 
C|---------------------------------------------------------------| 
G|---------------------------------------------------------------| 
E|---------------------------------------------------------------| 
B|-3----5----7----10-------3----5---6----10----10----9---9-------| 
F|-3----5----7----10-------3----5---6----10-10-10-10-9-9-9-9-----| 
B|-3----5----7----10-------3----5---6----10-10-10-10-9-9-9-9-----| 


(Parte 2) (rah-rah-ah-ah-ah-ah!Rama-ramama-ah gaga-ooh-la-la...) 
 
C|---------------------------------------------------------------| 
G|---------------------------------------------------------------| 
E|---------------------------------------------------------------| 
B|---------------------------------------------------------------| 
F|------7-7-8-7------7-7-8-7------7-7-8-7------------------------| 
B|-7-7----------7-7----------7-7----------10-10-7-10-7-9---------| 


(Parte 3) (I want your ugly, i want your disease...) 
Guitar 1 (Elliot) 
 
C|---------------------------------------------------------------| 
G|---------------------------------------------------------------| 
E|---------------------------------------------------------------| 
B|-7-7--7-7-7-7-7-10-9-7-9---------------------------------------| 
F|-7-7--7-7-7-7-7-10-9-7-9---------------------------------------| 
B|-7-7--7-7-7-7-7-10 9-7-9---------------------------------------| 


Guitar 2 (Peres) 
 
C|---------------------------------------------------------------| 
G|---------------------------------------------------------------| 
E|-14-14-14-14--12-12-12-12-12--17-17-17-17-17--16-16-16-16-16---|
B|-x--x--x--x----x--x--x--x--x---x--x--x--x--x--x--x--x--x--x----|  
F|-12-12-12-12--10-10-10-10-10--15-15-15-15-15--14-14-14-14-14---|  
B|---------------------------------------------------------------| 


(Parte 4) 

Pré Refrão: (You know that I want you...) 
 
C|---------------------------------------------------------------| 
G|---------------------------------------------------------------| 
E|---------------------------------------------------------------| 
B|-7------7------7------7----------------------------------------| 
F|-7------7------7------7----------------------------------------| 
B|-7------7------7------7----------------------------------------| 


(Parte 5) 

 
Refrão: (I want your love and i want your revenge...) 
C|---------------------------------------------------------------| 
G|---------------------------------------------------------------| 
E|---------------------------------------------------------------|  
B|-3-3-3-3-3-3-3-5-5-5-5-5-5-5-7-7-7-7-7-7-7-10-10-10-10-10-10-10|  
F|-3-3-3-3-3-3-3-5-5-5-5-5-5-5-7-7-7-7-7-7-7-10-10-10-10-10-10-10| 
B|-3-3-3-3-3-3-3-5-5-5-5-5-5-5-7-7-7-7-7-7-7-10-10-10-10-10-10-10| 

 
                                                                    
C|---------------------------------------------------------------| 
G|---------------------------------------------------------------| 
E|---------------------------------------------------------------| 
B|-3-3-3-3-3-3-3-5-5-5-5-5-5-5-6-6-6-6-6-6-6-10-10-10-9-9-9-9-9-9| 
F|-3-3-3-3-3-3-3-5-5-5-5-5-5-5-6-6-6-6-6-6-6-10-10-10-9-9-9-9-9-9| 
B|-3-3-3-3-3-3-3-5-5-5-5-5-5-5-6-6-6-6-6-6-6-10-10-10-9-9-9-9-9-9| 


(Parte 2) (rah-rah-ah-ah-ah-ah!Rama-ramama-ah gaga-ooh-la-la...) 
 
C|---------------------------------------------------------------| 
G|---------------------------------------------------------------| 
E|---------------------------------------------------------------| 
B|---------------------------------------------------------------| 
F|------7-7-8-7------7-7-8-7------7-7-8-7------------------------| 
B|-7-7----------7-7----------7-7----------10-10-7-10-7-9---------| 
 
	  

No existe una video leccione para esta canción

request
LosAcordes
Buscar
auto avanzar rasgueos aumentar disminuir cambiar color esconder acordes gráficos
losacordes exhibir acordes losacordes youTube video losacordes ocultar tabs losacordes ir hacia arriba losacordes