Gipsy Kings

Início > Gipsy King... > acordes

Passion Tablatura

Gipsy Kings

Dificultad:ExpertoExperto

tuner correct add songbook print version text version salvar en e-mail
acordesukuleletablaturabajobateríaarmónicaflautacavacopiano Guitar Pro
acordes

Passion

	   
E|--5-4h5r4----------5-4h5r4------------------------------------5-4h5r4------ 
B|------------3~~----------------5~~---3h5r3/2----2\3\5~-----------------3~~- 
G|---------------------------------------------------4----------------------- 
D|--------------------------------------------------------------------------- 
A|--------------------------------------------------------------------------- 
E|--------------------------------------------------------------------------- 
 
   ----5-4h5r4--------------------------------| 
   --------------5~~---3h5r3/2----2\3\5~~-----| 
   -----------------------------------------4-| 
   -------------------------------------------| 
   -------------------------------------------| 
   -------------------------------------------| 
 
 
E|----------------------------------------------------------9-9h10~~-9-~~-- 
B|----------------------------------------------9h10h12-------------------- 
G|--------2h4r2----2-4h6r4~~-------9h11------------------------------------ 
D|--2h4----------4--------------------------------------------------------- 
A|------------------------------------------------------------------------- 
E|------------------------------------------------------------------------- 
 
   --9-10-12-10-9-------------------10-9-9~~--| 
   ----------------------12r10h12~~-----------| 
   -------------------------------------------| 
   -------------------------------------------| 
   -------------------------------------------| 
   -------------------------------------------| 
    
 
E|--5-4h5r4----------5-4h5r4------------------------------------5-4h5r4------ 
B|------------3~~----------------5~~---3h5r3/2----2\3\5~-----------------3~~- 
G|---------------------------------------------------4----------------------- 
D|--------------------------------------------------------------------------- 
A|--------------------------------------------------------------------------- 
E|--------------------------------------------------------------------------- 
 
   ----5-4h5r4--------------------------------| 
   --------------5~~---3h5r3/2----2\3\5~~-----| 
   -----------------------------------------4-| 
   -------------------------------------------| 
   -------------------------------------------| 
   -------------------------------------------| 
    
 
E|---------------------------------------------------------------9-9h10~~-9-~~- 
B|--0-2-3-2-0------------------------------------9h10h12----------------------- 
G|--------------4r2r1----1-1h2-1-1~~---9h11------------------------------------ 
D|----------------------4------------------------------------------------------ 
A|----------------------------------------------------------------------------- 
E|----------------------------------------------------------------------------- 
 
   ---9-10-12-10-9-------------------10-9-9~~-| 
   -------------------12r10h12~~--------------| 
   -------------------------------------------| 
   -------------------------------------------| 
   -------------------------------------------| 
   -------------------------------------------| 
 
E|-------------------------------------------------7-7-10?5-7~~--9-7---- 
B|-12-10-12/14\12~~-9-9-9h10h12r10~~--9-9--9---7-9~~--------10-9h10r9--- 
G|---------------------------------------------------------------------- 
D|---------------------------------------------------------------------- 
A|---------------------------------------------------------------------- 
E|---------------------------------------------------------------------- 
 
   --------------------------|        
   ----------12r10r9h10h12~~-|         
   -------------------11-9~~-|    
   --------------------------| 
   --------------------------| 
   --------------------------| 
 
 
E|-7-7-10?5-7~~--------------7------------------------------- 
B|-9-9--9---7-9~~----7-9-10------10-9-9h10r9-7-7h9r7---7----- 
G|----------------------------------------------------------- 
D|----------------------------------------------------------- 
A|----------------------------------------------------------- 
E|----------------------------------------------------------- 
 
   ----------------------------------------------------9~~-|         
   ---------------9-12r10r9----10~---12----10~~------------|                      
   ----9----9r7~---------11-------------11-----------------|     
   ------------------9-------------------------------------|  
   --------------------------------------------------------| 
   ------------------7-------------------------------------| 
 
 
 
E|--9-8~--8-9-11/12-11h12r11r9~~-----------------------------------------------------| 
B|---------------------------------------9h10r9-10-12-10h12r10r9~--------------------| 
G|-----------------------------------11---------------------------------11-9-11~~----| 
D|-----------------------------------------------------------------------------------| 
A|-----------------------------------------------------------------------------------| 
E|-----------------------------------------------------------------------------------| 
 
E|--5-4h5r4----------5-4h5r4------------------------------------5-4h5r4------- 
B|------------3~~----------------5~~---3h5r3/2----2\3\5~-----------------3~~-- 
G|---------------------------------------------------4------------------------ 
D|---------------------------------------------------------------------------- 
A|---------------------------------------------------------------------------- 
E|---------------------------------------------------------------------------- 
 
   ---5-4h5r4--------------------------------| 
   -------------5~~---3h5r3/2----2\3\5~~-----|   
   ----------------------------------------4-| 
   ------------------------------------------| 
   ------------------------------------------| 
   ------------------------------------------| 
 
 
E|----------------------------------------------------------9-9h10~~-9-~~-- 
B|----------------------------------------------9h10h12-------------------- 
G|--------2h4r2----2-4h6r4~~-------9h11------------------------------------ 
D|--2h4----------4--------------------------------------------------------- 
A|------------------------------------------------------------------------- 
E|------------------------------------------------------------------------- 
 
   --9-10-12-10-9-------------------10-9-9~~-----| 
   ----------------------12r10h12~~--------------| 
   ----------------------------------------------| 
   ----------------------------------------------| 
   ----------------------------------------------| 
   ----------------------------------------------| 
 
 
E|--5-4h5r4----------5-4h5r4------------------------------------5-4h5r4------ 
B|------------3~~----------------5~~---3h5r3/2----2\3\5~-----------------3~~- 
G|---------------------------------------------------4----------------------- 
D|--------------------------------------------------------------------------- 
A|--------------------------------------------------------------------------- 
E|--------------------------------------------------------------------------- 
 
   ----5-4h5r4--------------------------------| 
   --------------5~~---3h5r3/2----2\3\5~~-----|  
   -----------------------------------------4-| 
   -------------------------------------------| 
   -------------------------------------------| 
   -------------------------------------------| 
 
 
E|---------------------------------------------------------------9-9h10~~-9-~~-- 
B|--0-2-3-2-0------------------------------------9h10h12------------------------ 
G|--------------4r2r1----1-1h2-1-1~~---9h11------------------------------------- 
D|----------------------4------------------------------------------------------- 
A|------------------------------------------------------------------------------ 
E|------------------------------------------------------------------------------ 
 
   --9-10-12-10-9-------------------10-9-9~~-| 
   ------------------12r10h12~~--------------| 
   ------------------------------------------| 
   ------------------------------------------| 
   ------------------------------------------| 
   ------------------------------------------| 
 
 
E|-------------------------------------------------7-7-10?5-7~~--9-7-----------------------| 
B|-12-10-12/14\12~~-9-9-9h10h12r10~~--9-9--9---7-9~~--------10-9h10r9------12r10r9h10h12~~-| 
G|----------------------------------------------------------------------------------11-9~~-| 
D|-----------------------------------------------------------------------------------------| 
A|-----------------------------------------------------------------------------------------| 
E|-----------------------------------------------------------------------------------------| 
 
E|-7-7-10?5-7~~--------------7------------------------------- 
B|-9-9--9---7-9~~----7-9-10------10-9-9h10r9-7-7h9r7---7----- 
G|----------------------------------------------------------- 
D|----------------------------------------------------------- 
A|----------------------------------------------------------- 
E|----------------------------------------------------------- 
 
   ----------------------------------------------------9~~-| 
   ---------------9-12r10r9----10~---12----10~~------------|    
   ----9----9r7~---------11-------------11-----------------| 
   ------------------9-------------------------------------| 
   --------------------------------------------------------| 
   ------------------7-------------------------------------| 
 
 
E|--9-8~--8-9-11/12-11h12r11r9~~-------------------------------------------------| 
B|----------------------------------------9h10r9-10-12-10h12r10r9~---------------| 
G|------------------------------------11-------------------------------11-9-11~~-| 
D|-------------------------------------------------------------------------------| 
A|-------------------------------------------------------------------------------| 
E|-------------------------------------------------------------------------------| 
 
E|------------------------------| 
B|------------------------------| 
G|-2~--2--4---------------------| 
D|-4~----------6~~-6-4--2-2h4~~-| 
A|-4~----------2~~--------------| 
E|-2~---------------------------| 
 
 
_______________________________________________________ 
Contribuição: Cassio Kenji Mori([email protected]) 
	  

No existe una video leccione para esta canción

request
LosAcordes
Buscar
auto avanzar rasgueos aumentar disminuir cambiar color esconder acordes gráficos
losacordes exhibir acordes losacordes youTube video losacordes ocultar tabs losacordes ir hacia arriba losacordes