Gipsy Kings

Início > Gipsy King... > acordes

Bem, Bem, Maria Tablatura

Gipsy Kings

Dificultad:ExpertoExperto

tuner correct add songbook print version text version salvar en e-mail
acordesukuleletablaturabajobateríaarmónicaflautacavacopiano Guitar Pro
acordes

Bem, Bem, Maria

	  Gtr I    Acoustic 
Gtr II   Electric 
Gtr III  Acoustic 
 
All Guitars Standard Tuning 
 
  Q=180 
 4/4 
  Gtr I 
  Q  Q  Q.   E   +E  Q  E E E Q    Q  Q  Q.   E   +E  Q  E E E Q 
|-7--7--7----7-|-(7)-7--7-7-7-7--|-7--7--7----7-|-(7)-7--7-7-7-7---| 
|-8--8--7----8-|-(8)-8--7-7-7-7--|-8--8--7----8-|-(8)-8--7-7-7-7---| 
|-9--9--7----9-|-(9)-9--7-7-7-7--|-9--9--7----9-|-(9)-9--7-7-7-7---| 
|-9--9--7----9-|-(9)-9--7-7-7-7--|-9--9--7----9-|-(9)-9--7-7-7-7---| 
|-7--7--7----7-|-(7)-7--7-7-7-7--|-7--7--7----7-|-(7)-7--7-7-7-7---| 
|--------------|-----------------|--------------|------------------| 
 
 
    |-3-| |-3-|      |-3-| |-3-| 
  E S S S S S S E Q  S S S S S S   E E E E +E  E E E 
|-7-7-7-7-7-7-7-7-7--7-7-7-7-7-7-|-7-7-7-7-(7)-7-7-7-| 
|-7-8-8-8-8-8-8-8-8--8-8-8-8-8-8-|-8-8-8-7-(7)-7-7-7-| 
|-9-9-9-9-9-9-9-9-9--9-9-9-9-9-9-|-9-9-9-7-(7)-7-7-7-| 
|-9-9-9-9-9-9-9-9-9--9-9-9-9-9-9-|-9-9-9-7-(7)-7-7-7-| 
|-7-7-7-7-7-7-7-7-7--7-7-7-7-7-7-|-7-7-7-7-(7)-7-7-7-| 
|--------------------------------|-------------------| 
 
 
  Gtr II 
  W                                W 
|--------------------------------|-------------------| 
|--------------------------------|-------------------| 
|--------------------------------|-------------------| 
|--------------------------------|-------------------| 
|--------------------------------|-------------------| 
|--------------------------------|-------------------| 
| 
| Gtr I 
|   |-3-| |-3-|      |-3-| |-3-| 
| E S S S S S S E Q  S S S S S S   E E E E +E  E E E 
|-7-7-7-7-7-7-7-7-7--7-7-7-7-7-7-|-7-7-7-7-(7)-7-7-7-| 
|-7-8-8-8-8-8-8-8-8--8-8-8-8-8-8-|-8-8-8-7-(7)-7-7-7-| 
|-9-9-9-9-9-9-9-9-9--9-9-9-9-9-9-|-9-9-9-7-(7)-7-7-7-| 
|-9-9-9-9-9-9-9-9-9--9-9-9-9-9-9-|-9-9-9-7-(7)-7-7-7-| 
|-7-7-7-7-7-7-7-7-7--7-7-7-7-7-7-|-7-7-7-7-(7)-7-7-7-| 
|--------------------------------|-------------------| 
 
 
    Q.         E   E   Q. 
||---------------------------------| 
||o--------------------------------| 
||--2----------0-------------------| 
||-----------------4---2-----------| 
||o--------------------------------| 
||---------------------------------| 
| 
|   E  S S S S S E   S S  S S S E 
||--7--7-7-7-7-7-7---7-7--7-7-7-7--| 
||o-7--7-7-8-8-8-8---8-8--8-8-8-8--| 
||--9--9-9-9-9-9-9---9-9--9-9-9-9--| 
||--9--9-9-9-9-9-9---9-9--9-9-9-9--| 
||o-7--7-7-7-7-7-7---7-7--7-7-7-7--| 
||---------------------------------| 
 
 
  W                 H       E Q   E 
|-----------------|-----------------| 
|-----------------|-----------------| 
|-----------------|-----------2---0-| 
|-----------------|-----------------| 
|-----------------|-----------------| 
|-----------------|-----------------| 
| 
| E E E E E E E E   E E E E E E E E 
|-7-7-7-7-7-7-7-7-|-7-7-7-7-7-7-7-7-| 
|-8-8-8-8-8-8-8-8-|-8-8-8-8-8-8-8-8-| 
|-9-9-9-9-9-9-9-9-|-9-9-9-9-9-9-9-9-| 
|-9-9-9-9-9-9-9-9-|-9-9-9-9-9-9-9-9-| 
|-7-7-7-7-7-7-7-7-|-7-7-7-7-7-7-7-7-| 
|-----------------|-----------------| 
 
 
  E.   S E   E   E   Q.           W 
|-------------------------------|-----------------| 
|------0------------------------|-----------------| 
|-2------2---0------------------|-----------------| 
|----------------4---2----------|-----------------| 
|-------------------------------|-----------------| 
|-------------------------------|-----------------| 
| 
| E  S S S S S E   S S  S S S E   E E E E E E E E 
|-7--7-7-7-7-7-7---7-7--7-7-7-7-|-7-7-7-7-7-7-7-7-| 
|-8--8-8-8-8-8-8---8-8--8-8-8-8-|-8-8-8-8-8-8-8-8-| 
|-9--9-9-9-9-9-9---9-9--9-9-9-9-|-9-9-9-9-9-9-9-9-| 
|-9--9-9-9-9-9-9---9-9--9-9-9-9-|-9-9-9-9-9-9-9-9-| 
|-7--7-7-7-7-7-7---7-7--7-7-7-7-|-7-7-7-7-7-7-7-7-| 
|-------------------------------|-----------------| 
 
 
  H       E E E E   H             +E    E   E   E 
|-----------------|-------------------------------| 
|-----------0-0-0-|-------------------------------| 
|-----------------|-2-------------(2)---0---------| 
|-----------------|-------------------------4---2-| 
|-----------------|-------------------------------| 
|-----------------|-------------------------------| 
| 
| E E E E E E E E   E S S S S S E     S S S S S E 
|-7-7-7-7-7-7-7-7-|-7-7-7-7-7-7-7-----7-7-7-7-7-7-| 
|-8-8-8-8-8-8-8-8-|-8-8-8-8-8-8-8-----8-8-8-8-8-8-| 
|-9-9-9-9-9-9-9-9-|-9-9-9-9-9-9-9-----9-9-9-9-9-9-| 
|-9-9-9-9-9-9-9-9-|-9-9-9-9-9-9-9-----9-9-9-9-9-9-| 
|-7-7-7-7-7-7-7-7-|-7-7-7-7-7-7-7-----7-7-7-7-7-7-| 
|-----------------|-------------------------------| 
 
 
  E E E E Q   E E   +E  E Q   E E E E 
|-----------------|-------------------| 
|-----------------|-------------------| 
|-------0-2-----0-|-(0)---------------| 
|-0-2-4-------4---|-----2-4---0-2-4-2-| 
|-----------------|-------------------| 
|-----------------|-------------------| 
| 
| E E E E E E E E    E  E E E E E E E 
|-5-5-5-5-5-5-5-5-|--5--5-5-5-5-5-5-5-| 
|-7-7-7-7-7-7-7-7-|--7--7-7-7-7-7-7-7-| 
|-7-7-7-7-7-7-7-7-|--7--7-7-7-7-7-7-7-| 
|-7-7-7-7-7-7-7-7-|--7--7-7-7-7-7-7-7-| 
|-5-5-5-5-5-5-5-5-|--5--5-5-5-5-5-5-5-| 
|-5-5-5-5-5-5-5-5-|--5--5-5-5-5-5-5-5-| 
 
 
  S S Q.           +H                W                 H       E E E E 
|----------------------------------|-----------------|-----------------| 
|----------------------------------|-----------------|-----------------| 
|----------------------------------|-----------------|-----------------| 
|-0---0------------(0)-------------|-----------------|-----------4-4-4-| 
|---4------------------------------|-----------------|-----------------| 
|----------------------------------|-----------------|-----------------| 
| 
| E   S  S S S S E     S S S S S E   E E E E E E E E   E E E E E E E E 
|-5---5--5-5-5-5-5-----5-5-5-5-5-5-|-5-5-5-5-5-5-5-5-|-5-5-5-5-5-5-5-5-| 
|-7---7--7-7-7-7-7-----7-7-7-7-7-7-|-8-8-8-8-8-8-8-8-|-7-7-7-7-7-7-7-7-| 
|-7---7--7-7-7-7-7-----7-7-7-7-7-7-|-7-7-7-7-7-7-7-7-|-7-7-7-7-7-7-7-7-| 
|-7---7--7-7-7-7-7-----7-7-7-7-7-7-|-5-5-5-5-5-5-5-5-|-7-7-7-7-7-7-7-7-| 
|-5---5--5-5-5-5-5-----5-5-5-5-5-5-|-5-5-5-5-5-5-5-5-|-5-5-5-5-5-5-5-5-| 
|-5---5--5-5-5-5-5-----5-5-5-5-5-5-|-5-5-5-5-5-5-5-5-|-5-5-5-5-5-5-5-5-| 
 
 
  Q     Q       E   S S Q 
|-----------------------------| 
|-----------------------------| 
|-0---------------------------| 
|-------2-------4---5-4-0-----| 
|-----------------------------| 
|-----------------------------| 
| 
| E S S S S S E   S S S S S E 
|-5-5-5-5-5-5-5---5-5-5-5-5-5-| 
|-7-7-7-7-7-7-7---7-7-7-7-7-7-| 
|-7-7-7-7-7-7-7---7-7-7-7-7-7-| 
|-7-7-7-7-7-7-7---7-7-7-7-7-7-| 
|-5-5-5-5-5-5-5---5-5-5-5-5-5-| 
|-5-5-5-5-5-5-5---5-5-5-5-5-5-| 
 
 
   E  S S  E  E +E   E  E  E    Q     H           Q 
|----------------------------|-------------------------| 
|----------------------------|-------------------------| 
|----------------------------|-------------------------| 
|--2--4-2--0--2-(2)--0-------|-------------------------| 
|-----------------------3--2-|--3----------------------| 
|----------------------------|-------------------------| 
| 
|  E  E    E  E  E   E  E  E    E  E  E  E  E  E  E  E 
|--8--8----8--8--8---8--8--8-|--8--8--8--8--8--8--8--8-| 
|--8--8----8--8--8---8--8--8-|--8--8--8--8--8--8--8--8-| 
|--9--9----9--9--9---9--9--9-|--9--9--9--9--9--9--9--9-| 
|-10-10---10-10-10--10-10-10-|-10-10-10-10-10-10-10-10-| 
|-10-10---10-10-10--10-10-10-|-10-10-10-10-10-10-10-10-| 
|--8--8----8--8--8---8--8--8-|--8--8--8--8--8--8--8--8-| 
 
 
   Q        Q          H 
|------------------------------------------| 
|------------------------------------------| 
|-----------0----------0-------------------| 
|------------------------------------------| 
|------------------------------------------| 
|------------------------------------------| 
| 
|  E  S  S  S  S  S  E    S  S  S  S  S  E 
|--8--8--8--8--8--8--8----8--8--8--8--8--8-| 
|--8--8--8--8--8--8--8----8--8--8--8--8--8-| 
|--9--9--9--9--9--9--9----9--9--9--9--9--9-| 
|-10-10-10-10-10-10-10---10-10-10-10-10-10-| 
|-10-10-10-10-10-10-10---10-10-10-10-10-10-| 
|--8--8--8--8--8--8--8----8--8--8--8--8--8-| 
 
 
   Q.       E +Q      Q      H.           Q 
|--------------------------|------------------| 
|--------------------------|------------------| 
|--------------------------|------------------| 
|--4h=======2-(2)-----0----|-2------------2---| 
|--------------------------|------------------| 
|--------------------------|------------------| 
| 
|  E  E  E  E  E   E  E  E   E  E E E E E E E 
|--8--8--8--8--8---8--8--8-|-8--8-8-8-8-8-8-8-| 
|--8--8--8--8--8---8--8--8-|-5--5-5-5-5-5-5-5-| 
|--9--9--9--9--9---9--9--9-|-5--5-5-5-5-5-5-5-| 
|-10-10-10-10-10--10-10-10-|-5--5-5-5-5-5-5-5-| 
|-10-10-10-10-10--10-10-10-|-7--7-7-7-7-7-7-7-| 
|--8--8--8--8--8---8--8--8-|-5--5-5-5-5-5-5-5-| 
 
 
  Q.         E   +Q        Q 
|--------------------------------| 
|--------------------------------| 
|--------------------------------| 
|-2----------0---(0)-------------| 
|--------------------------3-----| 
|--------------------------------| 
| 
| E  S S S S S E     S S S S S E 
|-8--8-8-8-8-8-8-----8-8-8-8-8-8-| 
|-5--5-5-5-5-5-5-----5-5-5-5-5-5-| 
|-5--5-5-5-5-5-5-----5-5-5-5-5-5-| 
|-5--5-5-5-5-5-5-----5-5-5-5-5-5-| 
|-7--7-7-7-7-7-7-----7-7-7-7-7-7-| 
|-5--5-5-5-5-5-5-----5-5-5-5-5-5-| 
 
 
   W                         W 
|-------------------------|-------------------------| 
|-------------------------|-------------------------| 
|-------------------------|-------------------------| 
|-------------------------|-------------------------| 
|--2----------------------|-------------------------| 
|-------------------------|-------------------------| 
| 
|  E  E  E  E  E  E  E  E    E  E  E  E  E  E  E  E 
|--7--7--7--7--7--7--7--7-|--7--7--7--7--7--7--7--7-| 
|-10-10-10-10-10-10-10-10-|-10-10-10-10-10-10-10-10-| 
|--8--8--8--8--8--8--8--8-|--8--8--8--8--8--8--8--8-| 
|--7--7--7--7--7--7--7--7-|--7--7--7--7--7--7--7--7-| 
|--9--9--9--9--9--9--9--9-|--9--9--9--9--9--9--9--9-| 
|--7--7--7--7--7--7--7--7-|--7--7--7--7--7--7--7--7-| 
 
 
   H                   E     Q           E 
|----------------------------------------------|| 
|---------------------------------------------o|| 
|----------------------------2-----------0-----|| 
|----------------------------------------------|| 
|---------------------------------------------o|| 
|----------------------------------------------|| 
| 
|  E  S  S  S  S  S  E    S  S  S  S  S  S  S 
|--7--7--7--7--7--7--7----7--7--7--7--7--7--7--|| 
|-10-10-10-10-10-10-10---10-10-10-10-10-10-10-o|| 
|--8--8--8--8--8--8--8----8--8--8--8--8--8--8--|| 
|--7--7--7--7--7--7--7----7--7--7--7--7--7--7--|| 
|--9--9--9--9--9--9--9----9--9--9--9--9--9--9-o|| 
|--7--7--7--7--7--7--7----7--7--7--7--7--7--7--|| 
 
 
                                             |--3--| |--3--| 
   H                   E     E     E     E   E E   E E E   E H 
|------------------------------------------|--------------------------| 
|------------------------------------------|--------------------------| 
|------------------------------------------|--------------------------| 
|----------------------------0-----2-----0-|-4-----2-4-2---0-0--------| 
|------------------------------------------|--------------------------| 
|------------------------------------------|--------------------------| 
| 
|  E  S  S  S  S  S  E    S  S  S  S  S  E   E   E   E   E   E E E E 
|--8--8--8--8--8--8--8----8--8--8--8--8--8-|-5---5---5---5---5-5-5-5--| 
|--8--8--8--8--8--8--8----8--8--8--8--8--8-|-7---7---7---7---7-7-7-7--| 
|--9--9--9--9--9--9--9----9--9--9--9--9--9-|-7---7---7---7---7-7-7-7--| 
|-10-10-10-10-10-10-10---10-10-10-10-10-10-|-7---7---7---7---7-7-7-7--| 
|-10-10-10-10-10-10-10---10-10-10-10-10-10-|-5---5---5---5---5-5-5-5--| 
|--8--8--8--8--8--8--8----8--8--8--8--8--8-|-5---5---5---5---5-5-5-5--| 
 
 
  E Q   E Q   E S S   H             H                 W 
|-------------------|-------------------------------|------------------| 
|-------------------|-------------------------------|------------------| 
|-------------------|-------------------------------|------------------| 
|---0---------------|-------------------------------|------------------| 
|-------3-2---3-5h3h|=2-----------------------------|------------------| 
|-------------------|-------------------------------|------------------| 
| 
| E E E E E E E E     E S S S S S E   S S S S S S S   E Q  E +E  Q  E 
|-5-5-5-5-5-5-5-5---|-3-3-3-3-3-3-3---3-3-3-3-3-3-3-|------------------| 
|-7-7-7-7-7-7-7-7---|-3-3-3-3-3-3-3---3-3-3-3-3-3-3-|------------------| 
|-7-7-7-7-7-7-7-7---|-4-4-4-4-4-4-4---4-4-4-4-4-4-4-|------------------| 
|-7-7-7-7-7-7-7-7---|-5-5-5-5-5-5-5---5-5-5-5-5-5-5-|------------0-----| 
|-5-5-5-5-5-5-5-5---|-5-5-5-5-5-5-5---5-5-5-5-5-5-5-|------2-(2)-------| 
|-5-5-5-5-5-5-5-5---|-3-3-3-3-3-3-3---3-3-3-3-3-3-3-|---3-----------3--| 
 
 
   W          Q     Q       Q       E   E   +E  Q       E   Q       Q 
|-----------|-----------------------------|--------------------------------| 
|-----------|-0-----0-------0-----------1-|-(1)-1-------1---1--------------| 
|-----------|-----------------------0-----|-------------------------2------| 
|-----------|-----------------------------|--------------------------------| 
|-----------|-----------------------------|--------------------------------| 
|-----------|-----------------------------|--------------------------------| 
| 
|  W          E S S S S S E   S S S S S E    E  S S S S S E   S S S S S E 
|-^3--------|-3-3-3-3-3-3-3---3-3-3-3-3-3-|--8--8-8-8-8-8-8---8-8-8-8-8-8--| 
|-^0--------|-3-3-3-3-3-3-3---3-3-3-3-3-3-|--5--5-5-5-5-5-5---5-5-5-5-5-5--| 
|-^0--------|-4-4-4-4-4-4-4---4-4-4-4-4-4-|--5--5-5-5-5-5-5---5-5-5-5-5-5--| 
|-^0--------|-5-5-5-5-5-5-5---5-5-5-5-5-5-|--5--5-5-5-5-5-5---5-5-5-5-5-5--| 
|-^2--------|-5-5-5-5-5-5-5---5-5-5-5-5-5-|--7--7-7-7-7-7-7---7-7-7-7-7-7--| 
|-^3--------|-3-3-3-3-3-3-3---3-3-3-3-3-3-|--5--5-5-5-5-5-5---5-5-5-5-5-5--| 
 
 
   Q        Q          Q           Q 
|-----------0------------------------------| 
|--3-------------------3-------------------| 
|------------------------------------------| 
|------------------------------------------| 
|------------------------------------------| 
|------------------------------------------| 
| 
|  E  S  S  S  S  S  E    S  S  S  S  S  E 
|-10-10-10-10-10-10-10---10-10-10-10-10-10-| 
|--7--7--7--7--7--7--7----7--7--7--7--7--7-| 
|--7--7--7--7--7--7--7----7--7--7--7--7--7-| 
|--7--7--7--7--7--7--7----7--7--7--7--7--7-| 
|--9--9--9--9--9--9--9----9--9--9--9--9--9-| 
|--7--7--7--7--7--7--7----7--7--7--7--7--7-| 
 
 
   W 
|-------------------------------------------| 
|-------------------------------------------| 
|-------------------------------------------| 
|-------------------------------------------| 
|-------------------------------------------| 
|-------------------------------------------| 
| 
|  E  S  S  S  S  S  E  S  S  S  S  S  S  S 
|-10-10-10-10-10-10-10-10-10-10-10-10-10-10-| 
|--7--7--7--7--7--7--7--7--7--7--7--7--7--7-| 
|--7--7--7--7--7--7--7--7--7--7--7--7--7--7-| 
|--7--7--7--7--7--7--7--7--7--7--7--7--7--7-| 
|--9--9--9--9--9--9--9--9--9--9--9--9--9--9-| 
|--7--7--7--7--7--7--7--7--7--7--7--7--7--7-| 
 
 
  Q     Q       Q       E   E   +E  Q       E   Q       Q 
|-----------------------------|-------------------------------| 
|-0-----0-------0-----------1-|-(1)-1-------1---1-------------| 
|-----------------------0-----|-------------------------2-----| 
|-----------------------------|-------------------------------| 
|-----------------------------|-------------------------------| 
|-----------------------------|-------------------------------| 
| 
| E S S S S S E   S S S S S E    E  S S S S S E   S S S S S E 
|-3-3-3-3-3-3-3---3-3-3-3-3-3-|--8--8-8-8-8-8-8---8-8-8-8-8-8-| 
|-3-3-3-3-3-3-3---3-3-3-3-3-3-|--5--5-5-5-5-5-5---5-5-5-5-5-5-| 
|-4-4-4-4-4-4-4---4-4-4-4-4-4-|--5--5-5-5-5-5-5---5-5-5-5-5-5-| 
|-5-5-5-5-5-5-5---5-5-5-5-5-5-|--5--5-5-5-5-5-5---5-5-5-5-5-5-| 
|-5-5-5-5-5-5-5---5-5-5-5-5-5-|--7--7-7-7-7-7-7---7-7-7-7-7-7-| 
|-3-3-3-3-3-3-3---3-3-3-3-3-3-|--5--5-5-5-5-5-5---5-5-5-5-5-5-| 
 
 
   Q        Q          Q           Q 
|-----------0------------------------------| 
|--3-------------------3-------------------| 
|------------------------------------------| 
|------------------------------------------| 
|------------------------------------------| 
|------------------------------------------| 
| 
|  E  S  S  S  S  S  E    S  S  S  S  S  E 
|-10-10-10-10-10-10-10---10-10-10-10-10-10-| 
|--7--7--7--7--7--7--7----7--7--7--7--7--7-| 
|--7--7--7--7--7--7--7----7--7--7--7--7--7-| 
|--7--7--7--7--7--7--7----7--7--7--7--7--7-| 
|--9--9--9--9--9--9--9----9--9--9--9--9--9-| 
|--7--7--7--7--7--7--7----7--7--7--7--7--7-| 
 
 
   W 
|-------------------------------------------| 
|-------------------------------------------| 
|-------------------------------------------| 
|-------------------------------------------| 
|-------------------------------------------| 
|-------------------------------------------| 
| 
|  E  S  S  S  S  S  E  S  S  S  S  S  S  S 
|-10-10-10-10-10-10-10-10-10-10-10-10-10-10-| 
|--7--7--7--7--7--7--7--7--7--7--7--7--7--7-| 
|--7--7--7--7--7--7--7--7--7--7--7--7--7--7-| 
|--7--7--7--7--7--7--7--7--7--7--7--7--7--7-| 
|--9--9--9--9--9--9--9--9--9--9--9--9--9--9-| 
|--7--7--7--7--7--7--7--7--7--7--7--7--7--7-| 
 
 
  Q     Q       Q       E   E   +E   Q           E    Q           E     E 
|-0-----0-------0-------0---0-|-(0)---------------------------------------| 
|-----------------------------|------3-----------3----3-----------1-----0-| 
|-----------------------------|-------------------------------------------| 
|-----------------------------|-------------------------------------------| 
|-----------------------------|-------------------------------------------| 
|-----------------------------|-------------------------------------------| 
| 
| E S S S S S E   S S S S S E    E   S  S  S  S  S  E    S  S  S  S  S  E 
|-8-8-8-8-8-8-8---8-8-8-8-8-8-|--8---8--8--8--8--8--8----8--8--8--8--8--8-| 
|-5-5-5-5-5-5-5---5-5-5-5-5-5-|--7---7--7--7--7--7--7----7--7--7--7--7--7-| 
|-5-5-5-5-5-5-5---5-5-5-5-5-5-|--7---7--7--7--7--7--7----7--7--7--7--7--7-| 
|-5-5-5-5-5-5-5---5-5-5-5-5-5-|--7---7--7--7--7--7--7----7--7--7--7--7--7-| 
|-7-7-7-7-7-7-7---7-7-7-7-7-7-|--7---7--7--7--7--7--7----7--7--7--7--7--7-| 
|-5-5-5-5-5-5-5---5-5-5-5-5-5-|-10--10-10-10-10-10-10---10-10-10-10-10-10-| 
 
 
  +E   Q           E    +Q            Q         W 
|---------------------------------------------|---------------------------| 
|-(0)--0-----------0----(0)-------------------|---------------------------| 
|---------------------------------------------|---------------------------| 
|---------------------------------------------|---------------------------| 
|---------------------------------------------|---------------------------| 
|---------------------------------------------|---------------------------| 
| 
|  E   S  S  S  S  S  E      S  S  S  S  S  E   E S S S S S E S S S S S E 
|--7---7--7--7--7--7--7------7--7--7--7--7--7-|-7-7-7-7-7-7-7-7-7-7-7-7-7-| 
|--7---7--7--7--7--7--7------7--7--7--7--7--7-|-8-8-8-8-8-8-8-8-8-8-8-8-8-| 
|--7---7--7--7--7--7--7------7--7--7--7--7--7-|-7-7-7-7-7-7-7-7-7-7-7-7-7-| 
|--7---7--7--7--7--7--7------7--7--7--7--7--7-|-9-9-9-9-9-9-9-9-9-9-9-9-9-| 
|-10--10-10-10-10-10-10-----10-10-10-10-10-10-|-7-7-7-7-7-7-7-7-7-7-7-7-7-| 
|---------------------------------------------|-0-0-0-0-0-0-0-0-0-0-0-0-0-| 
 
 
  Q     Q       Q       E   E 
|-----------------------------| 
|-1-----1-------1-------1---1-| 
|-----------------------------| 
|-----------------------------| 
|-----------------------------| 
|-----------------------------| 
| 
| E S S S S S E   S S S S S E 
|-8-8-8-8-8-8-8---8-8-8-8-8-8-| 
|-5-5-5-5-5-5-5---5-5-5-5-5-5-| 
|-5-5-5-5-5-5-5---5-5-5-5-5-5-| 
|-5-5-5-5-5-5-5---5-5-5-5-5-5-| 
|-7-7-7-7-7-7-7---7-7-7-7-7-7-| 
|-5-5-5-5-5-5-5---5-5-5-5-5-5-| 
 
 
  +E   Q           E    Q           Q         Q  Q  H 
|-------------------------------------------|---------------| 
|-(1)--0-----------0----0-------------------|-0-------------| 
|-----------------------------------2-------|---------------| 
|-------------------------------------------|---------------| 
|-------------------------------------------|---------------| 
|-------------------------------------------|---------------| 
| 
|  E   S  S  S  S  S  E    S  S  S  S  S  E   Q  Q  Q  E E 
|--8---8--8--8--8--8--8----8--8--8--8--8--8-|-7--7--7----7--| 
|--7---7--7--7--7--7--7----7--7--7--7--7--7-|-8--8--7----8--| 
|--7---7--7--7--7--7--7----7--7--7--7--7--7-|-7--7--7----7--| 
|--7---7--7--7--7--7--7----7--7--7--7--7--7-|-9--9--7----9--| 
|--7---7--7--7--7--7--7----7--7--7--7--7--7-|-7--7--7----7--| 
|-10--10-10-10-10-10-10---10-10-10-10-10-10-|---------------| 
 
 
  Gtr I 
  +E  Q  E +E  E Q    Q  Q  Q  E E   +E  Q  E +E  E Q    Q  Q  Q  E E 
|-(7)-7--7-(7)-7-7--|--------------|-------------------|-7--7--7----7-| 
|-(8)-8--7-(7)-7-7--|-8--8--7----8-|-(8)-8--7-(7)-7-7--|-8--8--7----8-| 
|-(7)-7--7-(7)-7-7--|-5--5--5----5-|-(5)-5--5-(5)-5-5--|-7--7--7----7-| 
|-(9)-9--7-(7)-7-7--|-5--5--5----5-|-(5)-5--5-(5)-5-5--|-9--9--7----9-| 
|-(7)-7--7-(7)-7-7--|-0--0--0----0-|-(0)-0--0-(0)-0-0--|-7--7--7----7-| 
|-------------------|--------------|-------------------|--------------| 
 
 
  +E  Q  E +E  E Q    Q  Q  Q  E E 
|-(7)-7--7-(7)-7-7--|--------------| 
|-(8)-8--7-(7)-7-7--|-8--8--7----8-| 
|-(7)-7--7-(7)-7-7--|-5--5--5----5-| 
|-(9)-9--7-(7)-7-7--|-5--5--5----5-| 
|-(7)-7--7-(7)-7-7--|-0--0--0----0-| 
|-------------------|--------------| 
 
 
  +E  Q  E +E  E Q    E S S S S S E S S S S S E 
|-------------------|-7-7-7-7-7-7-7-7-7-7-7-7-7--| 
|-(8)-8--7-(7)-7-7--|-7-7-7-8-8-8-8-8-8-8-8-8-8--| 
|-(5)-5--5-(5)-5-5--|-9-9-9-9-9-9-9-9-9-9-9-9-9--| 
|-(5)-5--5-(5)-5-5--|-9-9-9-9-9-9-9-9-9-9-9-9-9--| 
|-(0)-0--0-(0)-0-0--|-7-7-7-7-7-7-7-7-7-7-7-7-7--| 
|-------------------|----------------------------| 
 
 
  Gtr II 
  W                 W 
|-----------------|-----------------| 
|-----------------|-----------------| 
|-----------------|-0---------------| 
|-----------------|-----------------| 
|-----------------|-----------------| 
|-----------------|-----------------| 
| 
| Gtr I 
| E E E E E E E E   E E E E E E E E 
|-7-7-7-7-7-7-7-7-|-7-7-7-7-7-7-7-7-| 
|-8-8-8-8-8-8-8-8-|-8-8-8-8-8-8-8-8-| 
|-9-9-9-9-9-9-9-9-|-9-9-9-9-9-9-9-9-| 
|-9-9-9-9-9-9-9-9-|-9-9-9-9-9-9-9-9-| 
|-7-7-7-7-7-7-7-7-|-7-7-7-7-7-7-7-7-| 
|-----------------|-----------------| 
 
 
  +Q.         E   Q       E   E   Q   Q   H 
|-------------------------------|-----------------| 
|-------------------------------|-----------------| 
|-(0)---------------------------|-----------------| 
|-------------7p==5p======4p==2-|-2---------------| 
|-------------------------------|-----------------| 
|-------------------------------|-----------------| 
| 
|  E  S S S S S E   S S S S S E   E E E E E E E E 
|--7--7-7-7-7-7-7---7-7-7-7-7-7-|-7-7-7-7-7-7-7-7-| 
|--7--7-7-8-8-8-8---8-8-8-8-8-8-|-8-8-8-8-8-8-8-8-| 
|--9--9-9-9-9-9-9---9-9-9-9-9-9-|-9-9-9-9-9-9-9-9-| 
|--9--9-9-9-9-9-9---9-9-9-9-9-9-|-9-9-9-9-9-9-9-9-| 
|--7--7-7-7-7-7-7---7-7-7-7-7-7-|-7-7-7-7-7-7-7-7-| 
|-------------------------------|-----------------| 
 
 
  W                 Q     S S S S Q       Q 
|-----------------|-----------------------------| 
|-----------------|-----------------------------| 
|-----------------|-----------------------------| 
|-----------------|-5p====4h5p4h2-2-------------| 
|-----------------|-----------------------------| 
|-----------------|-----------------------------| 
| 
| E E E E E E E E   E S S S S S E   S S S S S E 
|-7-7-7-7-7-7-7-7-|-7-7-7-7-7-7-7---7-7-7-7-7-7-| 
|-8-8-8-8-8-8-8-8-|-7-7-7-8-8-8-8---8-8-8-8-8-8-| 
|-9-9-9-9-9-9-9-9-|-9-9-9-9-9-9-9---9-9-9-9-9-9-| 
|-9-9-9-9-9-9-9-9-|-9-9-9-9-9-9-9---9-9-9-9-9-9-| 
|-7-7-7-7-7-7-7-7-|-7-7-7-7-7-7-7---7-7-7-7-7-7-| 
|-----------------|-----------------------------| 
 
 
  W                 W 
|-----------------|-----------------| 
|-----------------|-----------------| 
|-----------------|-----------------| 
|-----------------|-----------------| 
|-----------------|-----------------| 
|-----------------|-----------------| 
| 
| E E E E E E E E   E E E E E E E E 
|-7-7-7-7-7-7-7-7-|-7-7-7-7-7-7-7-7-| 
|-8-8-8-8-8-8-8-8-|-8-8-8-8-8-8-8-8-| 
|-9-9-9-9-9-9-9-9-|-9-9-9-9-9-9-9-9-| 
|-9-9-9-9-9-9-9-9-|-9-9-9-9-9-9-9-9-| 
|-7-7-7-7-7-7-7-7-|-7-7-7-7-7-7-7-7-| 
|-----------------|-----------------| 
 
 
  E Q   E +E  Q   E   +E  Q.          E   Q.           +Q    Q   Q   E E 
|-------------------|--------------------------------|-------------------| 
|-------------------|--------------------------------|-------------------| 
|-------------------|--------------------------------|-------------------| 
|---2---4-(4)-5---7-|-(7)-5h==========2---4----------|-(4)---2h==0p==2-2-| 
|-------------------|--------------------------------|-------------------| 
|-------------------|--------------------------------|-------------------| 
| 
| E E E E  E  E E E    E  S S S S S E   S S  S S S E    E  E E E E E E E 
|-7-7-7-7--7--7-7-7-|--5--5-5-5-5-5-5---5-5--5-5-5-5-|--5--5-5-5-5-5-5-5-| 
|-8-8-8-8--8--8-8-8-|--7--7-7-7-7-7-7---7-7--7-7-7-7-|--7--7-7-7-7-7-7-7-| 
|-9-9-9-9--9--9-9-9-|--7--7-7-7-7-7-7---7-7--7-7-7-7-|--7--7-7-7-7-7-7-7-| 
|-9-9-9-9--9--9-9-9-|--7--7-7-7-7-7-7---7-7--7-7-7-7-|--7--7-7-7-7-7-7-7-| 
|-7-7-7-7--7--7-7-7-|--5--5-5-5-5-5-5---5-5--5-5-5-5-|--5--5-5-5-5-5-5-5-| 
|-------------------|--5--5-5-5-5-5-5---5-5--5-5-5-5-|--5--5-5-5-5-5-5-5-| 
 
 
  +H              +E    E   E   E   +H.           Q 
|---------------------------------|-------------------| 
|---------------------------------|-------------------| 
|---------------------------------|-------------------| 
|-(2)-------------(2)-------------|-------------------| 
|-----------------------5p==3h==5-|-(5)---------------| 
|---------------------------------|-------------------| 
| 
|  E  S S S S S E     S S S S S E    E  E E E E E E E 
|--5--5-5-5-5-5-5-----5-5-5-5-5-5-|--5--5-5-5-5-5-5-5-| 
|--7--7-7-7-7-7-7-----7-7-7-7-7-7-|--7--7-7-7-7-7-7-7-| 
|--7--7-7-7-7-7-7-----7-7-7-7-7-7-|--7--7-7-7-7-7-7-7-| 
|--7--7-7-7-7-7-7-----7-7-7-7-7-7-|--7--7-7-7-7-7-7-7-| 
|--5--5-5-5-5-5-5-----5-5-5-5-5-5-|--5--5-5-5-5-5-5-5-| 
|--5--5-5-5-5-5-5-----5-5-5-5-5-5-|--5--5-5-5-5-5-5-5-| 
 
 
   W 
|----------------------------------------| 
|----------------------------------------| 
|----------------------------------------| 
|----------------------------------------| 
|----------------------------------------| 
|----------------------------------------| 
| 
|  E  S  S  S  S  S  E  S  S  S  S  S  E 
|-10-10-10-10-10-10-10-10-10-10-10-10-10-| 
|--8--8--8--8--8--8--8--8--8--8--8--8--8-| 
|--7--7--7--7--7--7--7--7--7--7--7--7--7-| 
|--7--7--7--7--7--7--7--7--7--7--7--7--7-| 
|--0--0--0--0--0--0--0--0--0--0--0--0--0-| 
|----------------------------------------| 
 
 
   H           E  E  E  E   +E  Q       E   +E    Q       E 
|-------------------------|---------------------------------| 
|-------------------------|---------------------------------| 
|-------------------------|-------------0---(0)---2-------0-| 
|-----------------0--0--2-|-(2)-4---------------------------| 
|-------------------------|---------------------------------| 
|-------------------------|---------------------------------| 
| 
|  E  E  E  E  E  E  E  E    E  S S S S S E     S S S S S E 
|-10-10-10-10-10-10-10-10-|--5--5-5-5-5-5-5-----5-5-5-5-5-5-| 
|--8--8--8--8--8--8--8--8-|--7--7-7-7-7-7-7-----7-7-7-7-7-7-| 
|--7--7--7--7--7--7--7--7-|--7--7-7-7-7-7-7-----7-7-7-7-7-7-| 
|--7--7--7--7--7--7--7--7-|--7--7-7-7-7-7-7-----7-7-7-7-7-7-| 
|--0--0--0--0--0--0--0--0-|--5--5-5-5-5-5-5-----5-5-5-5-5-5-| 
|-------------------------|--5--5-5-5-5-5-5-----5-5-5-5-5-5-| 
 
 
  +E   Q           E    +H 
|----------------------------------------------| 
|----------------------------------------------| 
|-(0)------------------------------------------| 
|------4-----------2----(2)--------------------| 
|----------------------------------------------| 
|----------------------------------------------| 
| 
|  E   S  S  S  S  S  E      S  S  S  S  S  E 
|--8---8--8--8--8--8--8------8--8--8--8--8--8--| 
|--8---8--8--8--8--8--8------8--8--8--8--8--8--| 
|--9---9--9--9--9--9--9------9--9--9--9--9--9--| 
|-10--10-10-10-10-10-10-----10-10-10-10-10-10--| 
|-10--10-10-10-10-10-10-----10-10-10-10-10-10--| 
|--8---8--8--8--8--8--8------8--8--8--8--8--8--| 
 
 
   E  Q     E  Q     Q 
|-------------------------| 
|-------------------------| 
|-------------------------| 
|-------------------------| 
|--7h=5h====3p=5h====3----| 
|-------------------------| 
| 
|  E  E  E  E  E  E  E  E 
|--8--8--8--8--8--8--8--8-| 
|--8--8--8--8--8--8--8--8-| 
|--9--9--9--9--9--9--9--9-| 
|-10-10-10-10-10-10-10-10-| 
|-10-10-10-10-10-10-10-10-| 
|--8--8--8--8--8--8--8--8-| 
 
 
   E  Q           E    +H                       W 
|--------------------------------------------|-------------------------| 
|--------------------------------------------|-------------------------| 
|--------------------------------------------|-------------------------| 
|--------------------------------------------|-------------------------| 
|--3--3-----------3----(3)-------------------|-------------------------| 
|--------------------------------------------|-------------------------| 
| 
|  E  S  S  S  S  S  E      S  S  S  S  S  E    E  E  E  E  E  E  E  E 
|--8--8--8--8--8--8--8------8--8--8--8--8--8-|--8--8--8--8--8--8--8--8-| 
|--8--8--8--8--8--8--8------8--8--8--8--8--8-|--8--8--8--8--8--8--8--8-| 
|--9--9--9--9--9--9--9------9--9--9--9--9--9-|--9--9--9--9--9--9--9--9-| 
|-10-10-10-10-10-10-10-----10-10-10-10-10-10-|-10-10-10-10-10-10-10-10-| 
|-10-10-10-10-10-10-10-----10-10-10-10-10-10-|-10-10-10-10-10-10-10-10-| 
|--8--8--8--8--8--8--8------8--8--8--8--8--8-|--8--8--8--8--8--8--8--8-| 
 
 
                           |---3----| 
  E Q       E   +E    E   +E    E   E   W                 E Q   E Q   E S S 
|-------------------------------------|-----------------|-------------------| 
|-------------------------------------|-----------------|-------------------| 
|-------------------------------------|-----------------|-------------------| 
|---2-------0---(0)---2---(2)---4---2-|-0---------------|-0-0---------------| 
|-------------------------------------|-----------------|-------3-2---3-5-3-| 
|-------------------------------------|-----------------|-------------------| 
| 
| E S S S S S E     S S S  S  S   E     E E E E E E E E   E E E E E E E E 
|-5-5-5-5-5-5-5-----5-5-5--5--5---5---|-5-5-5-5-5-5-5-5-|-5-5-5-5-5-5-5-5---| 
|-7-7-7-7-7-7-7-----7-7-7--7--7---7---|-7-7-7-7-7-7-7-7-|-7-7-7-7-7-7-7-7---| 
|-5-5-5-5-5-5-5-----5-5-5--5--5---5---|-7-5-5-5-5-5-5-5-|-5-5-5-5-5-5-5-5---| 
|-7-7-7-7-7-7-7-----7-7-7--7--7---7---|-7-7-7-7-7-7-7-7-|-7-7-7-7-7-7-7-7---| 
|-5-5-5-5-5-5-5-----5-5-5--5--5---5---|-5-5-5-5-5-5-5-5-|-5-5-5-5-5-5-5-5---| 
|-5-5-5-5-5-5-5-----5-5-5--5--5---5---|-5-5-5-5-5-5-5-5-|-5-5-5-5-5-5-5-5---| 
 
 
  H             H                 W                  W 
|-------------------------------|-----------------|-------| 
|-------------------------------|-----------------|-------| 
|-------------------------------|-----------------|-------| 
|-------------------------------|-----------------|-------| 
|-2-----------------------------|-----------------|-------| 
|-------------------------------|-----------------|-------| 
| 
| E S S S S S E   S S S S S S S   E Q  E +E  Q  E    W 
|-3-3-3-3-3-3-3---3-3-3-3-3-3-3-|-----------------|-^3----| 
|-3-3-3-3-3-3-3---3-3-3-3-3-3-3-|-----------------|-^0----| 
|-4-4-4-4-4-4-4---4-4-4-4-4-4-4-|-----------------|-^0----| 
|-5-5-5-5-5-5-5---5-5-5-5-5-5-5-|------------0----|-^0----| 
|-5-5-5-5-5-5-5---5-5-5-5-5-5-5-|------2-(2)------|-^2----| 
|-3-3-3-3-3-3-3---3-3-3-3-3-3-3-|---3-----------3-|-^3----| 
 
 
  Q     Q       Q       E   E   +E  Q       E   Q       Q 
|-----------------------------|-------------------------------| 
|-0-----0-------0-----------1-|-(1)-1-------1---1-------------| 
|-----------------------0-----|-------------------------2-----| 
|-----------------------------|-------------------------------| 
|-----------------------------|-------------------------------| 
|-----------------------------|-------------------------------| 
| 
| E S S S S S E   S S S S S E    E  S S S S S E   S S S S S E 
|-3-3-3-3-3-3-3---3-3-3-3-3-3-|--8--8-8-8-8-8-8---8-8-8-8-8-8-| 
|-3-3-3-3-3-3-3---3-3-3-3-3-3-|--5--5-5-5-5-5-5---5-5-5-5-5-5-| 
|-4-4-4-4-4-4-4---4-4-4-4-4-4-|--5--5-5-5-5-5-5---5-5-5-5-5-5-| 
|-5-5-5-5-5-5-5---5-5-5-5-5-5-|--5--5-5-5-5-5-5---5-5-5-5-5-5-| 
|-5-5-5-5-5-5-5---5-5-5-5-5-5-|--7--7-7-7-7-7-7---7-7-7-7-7-7-| 
|-3-3-3-3-3-3-3---3-3-3-3-3-3-|--5--5-5-5-5-5-5---5-5-5-5-5-5-| 
 
 
   Q        Q          Q           Q 
|-----------0------------------------------| 
|--3-------------------3-------------------| 
|------------------------------------------| 
|------------------------------------------| 
|------------------------------------------| 
|------------------------------------------| 
| 
|  E  S  S  S  S  S  E    S  S  S  S  S  E 
|-10-10-10-10-10-10-10---10-10-10-10-10-10-| 
|--7--7--7--7--7--7--7----7--7--7--7--7--7-| 
|--7--7--7--7--7--7--7----7--7--7--7--7--7-| 
|--7--7--7--7--7--7--7----7--7--7--7--7--7-| 
|--9--9--9--9--9--9--9----9--9--9--9--9--9-| 
|--7--7--7--7--7--7--7----7--7--7--7--7--7-| 
 
 
   W 
|-------------------------------------------| 
|-------------------------------------------| 
|-------------------------------------------| 
|-------------------------------------------| 
|-------------------------------------------| 
|-------------------------------------------| 
| 
|  E  S  S  S  S  S  E  S  S  S  S  S  S  S 
|-10-10-10-10-10-10-10-10-10-10-10-10-10-10-| 
|--7--7--7--7--7--7--7--7--7--7--7--7--7--7-| 
|--7--7--7--7--7--7--7--7--7--7--7--7--7--7-| 
|--7--7--7--7--7--7--7--7--7--7--7--7--7--7-| 
|--9--9--9--9--9--9--9--9--9--9--9--9--9--9-| 
|--7--7--7--7--7--7--7--7--7--7--7--7--7--7-| 
 
 
  Q     Q       Q       E   E   +E  Q       E   Q       Q 
|-----------------------------|-------------------------------| 
|-0-----0-------0-----------1-|-(1)-1-------1---1-------------| 
|-----------------------0-----|-------------------------2-----| 
|-----------------------------|-------------------------------| 
|-----------------------------|-------------------------------| 
|-----------------------------|-------------------------------| 
| 
| E S S S S S E   S S S S S E    E  S S S S S E   S S S S S E 
|-3-3-3-3-3-3-3---3-3-3-3-3-3-|--8--8-8-8-8-8-8---8-8-8-8-8-8-| 
|-3-3-3-3-3-3-3---3-3-3-3-3-3-|--5--5-5-5-5-5-5---5-5-5-5-5-5-| 
|-4-4-4-4-4-4-4---4-4-4-4-4-4-|--5--5-5-5-5-5-5---5-5-5-5-5-5-| 
|-5-5-5-5-5-5-5---5-5-5-5-5-5-|--5--5-5-5-5-5-5---5-5-5-5-5-5-| 
|-5-5-5-5-5-5-5---5-5-5-5-5-5-|--7--7-7-7-7-7-7---7-7-7-7-7-7-| 
|-3-3-3-3-3-3-3---3-3-3-3-3-3-|--5--5-5-5-5-5-5---5-5-5-5-5-5-| 
 
 
   Q        Q          Q           Q 
|-----------0------------------------------| 
|--3-------------------3-------------------| 
|------------------------------------------| 
|------------------------------------------| 
|------------------------------------------| 
|------------------------------------------| 
| 
|  E  S  S  S  S  S  E    S  S  S  S  S  E 
|-10-10-10-10-10-10-10---10-10-10-10-10-10-| 
|--7--7--7--7--7--7--7----7--7--7--7--7--7-| 
|--7--7--7--7--7--7--7----7--7--7--7--7--7-| 
|--7--7--7--7--7--7--7----7--7--7--7--7--7-| 
|--9--9--9--9--9--9--9----9--9--9--9--9--9-| 
|--7--7--7--7--7--7--7----7--7--7--7--7--7-| 
 
 
   W 
|-------------------------------------------| 
|-------------------------------------------| 
|-------------------------------------------| 
|-------------------------------------------| 
|-------------------------------------------| 
|-------------------------------------------| 
| 
|  E  S  S  S  S  S  E  S  S  S  S  S  S  S 
|-10-10-10-10-10-10-10-10-10-10-10-10-10-10-| 
|--7--7--7--7--7--7--7--7--7--7--7--7--7--7-| 
|--7--7--7--7--7--7--7--7--7--7--7--7--7--7-| 
|--7--7--7--7--7--7--7--7--7--7--7--7--7--7-| 
|--9--9--9--9--9--9--9--9--9--9--9--9--9--9-| 
|--7--7--7--7--7--7--7--7--7--7--7--7--7--7-| 
 
 
  Q     Q       Q       E   E   +E   Q           E    Q           E     E 
|-0-----0-------0-------0---0-|-(0)---------------------------------------| 
|-----------------------------|------3-----------3----3-----------1-----0-| 
|-----------------------------|-------------------------------------------| 
|-----------------------------|-------------------------------------------| 
|-----------------------------|-------------------------------------------| 
|-----------------------------|-------------------------------------------| 
| 
| E S S S S S E   S S S S S E    E   S  S  S  S  S  E    S  S  S  S  S  E 
|-8-8-8-8-8-8-8---8-8-8-8-8-8-|--8---8--8--8--8--8--8----8--8--8--8--8--8-| 
|-5-5-5-5-5-5-5---5-5-5-5-5-5-|--7---7--7--7--7--7--7----7--7--7--7--7--7-| 
|-5-5-5-5-5-5-5---5-5-5-5-5-5-|--7---7--7--7--7--7--7----7--7--7--7--7--7-| 
|-5-5-5-5-5-5-5---5-5-5-5-5-5-|--7---7--7--7--7--7--7----7--7--7--7--7--7-| 
|-7-7-7-7-7-7-7---7-7-7-7-7-7-|--7---7--7--7--7--7--7----7--7--7--7--7--7-| 
|-5-5-5-5-5-5-5---5-5-5-5-5-5-|-10--10-10-10-10-10-10---10-10-10-10-10-10-| 
 
 
  +E   Q           E    +Q            Q         W 
|---------------------------------------------|---------------------------| 
|-(0)--0-----------0----(0)-------------------|---------------------------| 
|---------------------------------------------|---------------------------| 
|---------------------------------------------|---------------------------| 
|---------------------------------------------|---------------------------| 
|---------------------------------------------|---------------------------| 
| 
|  E   S  S  S  S  S  E      S  S  S  S  S  E   E S S S S S E S S S S S E 
|--7---7--7--7--7--7--7------7--7--7--7--7--7-|-7-7-7-7-7-7-7-7-7-7-7-7-7-| 
|--7---7--7--7--7--7--7------7--7--7--7--7--7-|-8-8-8-8-8-8-8-8-8-8-8-8-8-| 
|--7---7--7--7--7--7--7------7--7--7--7--7--7-|-7-7-7-7-7-7-7-7-7-7-7-7-7-| 
|--7---7--7--7--7--7--7------7--7--7--7--7--7-|-9-9-9-9-9-9-9-9-9-9-9-9-9-| 
|-10--10-10-10-10-10-10-----10-10-10-10-10-10-|-7-7-7-7-7-7-7-7-7-7-7-7-7-| 
|---------------------------------------------|-0-0-0-0-0-0-0-0-0-0-0-0-0-| 
 
 
  Q     Q       Q       E   E 
|-----------------------------| 
|-1-----1-------1-------1---1-| 
|-----------------------------| 
|-----------------------------| 
|-----------------------------| 
|-----------------------------| 
| 
| E S S S S S E   S S S S S E 
|-8-8-8-8-8-8-8---8-8-8-8-8-8-| 
|-5-5-5-5-5-5-5---5-5-5-5-5-5-| 
|-5-5-5-5-5-5-5---5-5-5-5-5-5-| 
|-5-5-5-5-5-5-5---5-5-5-5-5-5-| 
|-7-7-7-7-7-7-7---7-7-7-7-7-7-| 
|-5-5-5-5-5-5-5---5-5-5-5-5-5-| 
 
 
  +E   Q           E    Q           Q         Q  Q  H 
|-------------------------------------------|---------------| 
|-(1)--0-----------0----0-------------------|-0-------------| 
|-----------------------------------2-------|---------------| 
|-------------------------------------------|---------------| 
|-------------------------------------------|---------------| 
|-------------------------------------------|---------------| 
| 
|  E   S  S  S  S  S  E    S  S  S  S  S  E   Q  Q  Q  E E 
|--8---8--8--8--8--8--8----8--8--8--8--8--8-|-7--7--7----7--| 
|--7---7--7--7--7--7--7----7--7--7--7--7--7-|-8--8--7----8--| 
|--7---7--7--7--7--7--7----7--7--7--7--7--7-|-7--7--7----7--| 
|--7---7--7--7--7--7--7----7--7--7--7--7--7-|-9--9--7----9--| 
|--7---7--7--7--7--7--7----7--7--7--7--7--7-|-7--7--7----7--| 
|-10--10-10-10-10-10-10---10-10-10-10-10-10-|---------------| 
 
 
  Gtr I 
  +E  Q  E +E  E Q    Q  Q  Q  E E   +E  Q  E +E  E Q    Q  Q  Q  E E 
|-(7)-7--7-(7)-7-7--|-7--7--7----7-|-(7)-7--7-(7)-7-7--|--------------| 
|-(8)-8--7-(7)-7-7--|-8--8--7----8-|-(8)-8--7-(7)-7-7--|-8--8--7----8-| 
|-(7)-7--7-(7)-7-7--|-7--7--7----7-|-(7)-7--7-(7)-7-7--|-5--5--5----5-| 
|-(9)-9--7-(7)-7-7--|-9--9--7----9-|-(9)-9--7-(7)-7-7--|-5--5--5----5-| 
|-(7)-7--7-(7)-7-7--|-7--7--7----7-|-(7)-7--7-(7)-7-7--|-0--0--0----0-| 
|-------------------|--------------|-------------------|--------------| 
 
 
  Gtr III 
   W                  W 
|-------------------|--------------| 
|-------------------|--------------| 
|-------------------|--------------| 
|-------------------|--------------| 
|-------------------|--------------| 
|-------------------|--------------| 
| 
| Gtr I 
| +E  Q  E +E  E Q    Q  Q  Q  E E 
|-------------------|--------------| 
|-(8)-8--7-(7)-7-7--|-8--8--7----8-| 
|-(5)-5--5-(5)-5-5--|-5--5--5----5-| 
|-(5)-5--5-(5)-5-5--|-5--5--5----5-| 
|-(0)-0--0-(0)-0-0--|-0--0--0----0-| 
|-------------------|--------------| 
 
 
   W                  H             E    E   E   E 
|-------------------|------------------------------| 
|-------------------|-------------------10p==7---8-| 
|-------------------|------------------------------| 
|-------------------|------------------------------| 
|-------------------|------------------------------| 
|-------------------|------------------------------| 
| 
| +E  Q  E +E  E Q    E S S S S S E   S  S S S S E 
|-------------------|-5-5-5-5-5-5-5---5--5-5-5-5-5-| 
|-(8)-8--7-(7)-7-7--|-7-7-7-7-7-7-7---7--7-7-7-7-7-| 
|-(5)-5--5-(5)-5-5--|-5-5-5-5-5-5-5---5--5-5-5-5-5-| 
|-(5)-5--5-(5)-5-5--|-8-8-8-8-8-8-8---8--8-8-8-8-8-| 
|-(0)-0--0-(0)-0-0--|-6-6-6-6-6-6-6---6--6-6-6-6-6-| 
|-------------------|-5-5-5-5-5-5-5---5--5-5-5-5-5-| 
 
 
  H             E    E   E   E 
|--------------------------------| 
|-------------------10p==7---8---| 
|--------------------------------| 
|--------------------------------| 
|--------------------------------| 
|--------------------------------| 
| 
| E S S S S S E   S  S S S S S S 
|-7-7-7-7-7-7-7---7--7-7-7-7-7-7-| 
|-8-8-8-8-8-8-8---8--8-8-8-8-8-8-| 
|-7-7-7-7-7-7-7---7--7-7-7-7-7-7-| 
|-9-9-9-9-9-9-9---9--9-9-9-9-9-9-| 
|-7-7-7-7-7-7-7---7--7-7-7-7-7-7-| 
|--------------------------------| 
 
 
  H       E  E E E   H             E    E   E   E 
|------------------|------------------------------| 
|-----------10p7-8-|-------------------10p==7---8-| 
|------------------|------------------------------| 
|------------------|------------------------------| 
|------------------|------------------------------| 
|------------------|------------------------------| 
| 
| E E E E E  E E E   E S S S S S E   S  S S S S E 
|-7-7-7-7-7--7-7-7-|-7-7-7-7-7-7-7---7--7-7-7-7-7-| 
|-8-8-8-8-8--8-8-8-|-8-8-8-8-8-8-8---8--8-8-8-8-8-| 
|-7-7-7-7-7--7-7-7-|-7-7-7-7-7-7-7---7--7-7-7-7-7-| 
|-9-9-9-9-9--9-9-9-|-9-9-9-9-9-9-9---9--9-9-9-9-9-| 
|-7-7-7-7-7--7-7-7-|-7-7-7-7-7-7-7---7--7-7-7-7-7-| 
|------------------|------------------------------| 
 
 
  E E E  E E Q    E    +E  S  S E   E    E   E    E   E 
|----------7-8---10-|-(10)-8h10p8---7--------7----------| 
|---7-8-10----------|-------------------10-------10---8-| 
|-------------------|-----------------------------------| 
|-------------------|-----------------------------------| 
|-------------------|-----------------------------------| 
|-------------------|-----------------------------------| 
| 
| E E E  E E E E  E     E  S  S S S S E    S S S  S S E 
|-7-7-7--7-7-7-7--7-|---8--8--8-8-8-8-8----8-8-8--8-8-8-| 
|-8-8-8--8-8-8-8--8-|---5--5--5-5-5-5-5----5-5-5--5-5-5-| 
|-7-7-7--7-7-7-7--7-|---5--5--5-5-5-5-5----5-5-5--5-5-5-| 
|-9-9-9--9-9-9-9--9-|---5--5--5-5-5-5-5----5-5-5--5-5-5-| 
|-7-7-7--7-7-7-7--7-|---7--7--7-7-7-7-7----7-7-7--7-7-7-| 
|-------------------|---5--5--5-5-5-5-5----5-5-5--5-5-5-| 
 
 
            |-3-| 
   E E E E  S S S E +E  E 
|--------------------------| 
|-10-8-7-8h10p8p7-8-(8)-7--| 
|--------------------------| 
|--------------------------| 
|--------------------------| 
|--------------------------| 
| 
|  E E E E  E     E  E  E 
|--8-8-8-8--8-----8--8--8--| 
|--5-5-5-5--5-----5--5--5--| 
|--5-5-5-5--5-----5--5--5--| 
|--5-5-5-5--5-----5--5--5--| 
|--7-7-7-7--7-----7--7--7--| 
|--5-5-5-5--5-----5--5--5--| 
 
 
  Q.         E   +H                E E E  E E E E E 
|--------------------------------|----------7-----0-| 
|--------------------------------|---7-8-10---8-----| 
|-9----------9---(9)-------------|--------------9---| 
|--------------------------------|------------------| 
|--------------------------------|------------------| 
|--------------------------------|------------------| 
| 
| E  S S S S S E     S S S S S E   E E E  E E E E E 
|-8--8-8-8-8-8-8-----8-8-8-8-8-8-|-8-8-8--8-8-8-8-8-| 
|-5--5-5-5-5-5-5-----5-5-5-5-5-5-|-5-5-5--5-5-5-5-5-| 
|-5--5-5-5-5-5-5-----5-5-5-5-5-5-|-5-5-5--5-5-5-5-5-| 
|-5--5-5-5-5-5-5-----5-5-5-5-5-5-|-5-5-5--5-5-5-5-5-| 
|-7--7-7-7-7-7-7-----7-7-7-7-7-7-|-7-7-7--7-7-7-7-7-| 
|-5--5-5-5-5-5-5-----5-5-5-5-5-5-|-5-5-5--5-5-5-5-5-| 
 
 
  E  E   E   E    E   E   E    E 
|-8p10---7p==8--------7------------| 
|----------------10-------8p==10---| 
|----------------------------------| 
|----------------------------------| 
|----------------------------------| 
|----------------------------------| 
| 
| E  S S S S S E    S S S S S  S S 
|-7--7-7-7-7-7-7----7-7-7-7-7--7-7-| 
|-8--8-8-8-8-8-8----8-8-8-8-8--8-8-| 
|-9--9-9-9-9-9-9----9-9-9-9-9--9-9-| 
|-9--9-9-9-9-9-9----9-9-9-9-9--9-9-| 
|-7--7-7-7-7-7-7----7-7-7-7-7--7-7-| 
|----------------------------------| 
 
 
                                                                    |-3--| 
  E E E E E E  E E   Q     E   E   +H                E E E  E E E E S  S S 
|------------------|-------------------------------|------------------------| 
|-7p8---7----------|-------------------------------|--------------7-8h10p8--| 
|-----9---7p9----7-|-------------------------------|----------7-9-----------| 
|-------------10---|-9p====7---9---(9)-------------|---7-9-10---------------| 
|------------------|-------------------------------|------------------------| 
|------------------|-------------------------------|------------------------| 
| 
| E E E E E E  E E   E S S S S S E     S S S S S E   E E E  E E E E E 
|-7-7-7-7-7-7--7-7-|-7-7-7-7-7-7-7-----7-7-7-7-7-7-|-7-7-7--7-7-7-7-7-------| 
|-8-8-8-8-8-8--8-8-|-8-8-8-8-8-8-8-----8-8-8-8-8-8-|-8-8-8--8-8-8-8-8-------| 
|-9-9-9-9-9-9--9-9-|-9-9-9-9-9-9-9-----9-9-9-9-9-9-|-9-9-9--9-9-9-9-9-------| 
|-9-9-9-9-9-9--9-9-|-9-9-9-9-9-9-9-----9-9-9-9-9-9-|-9-9-9--9-9-9-9-9-------| 
|-7-7-7-7-7-7--7-7-|-7-7-7-7-7-7-7-----7-7-7-7-7-7-|-7-7-7--7-7-7-7-7-------| 
|------------------|-------------------------------|------------------------| 
 
 
  +E  Q       E   Q       E   E 
|-------------------------------| 
|-(8)-8p======7---8-------7---8-| 
|-------------------------------| 
|-------------------------------| 
|-------------------------------| 
|-------------------------------| 
| 
|  E  S S S S S E   S S S S S E 
|--8--8-8-8-8-8-8---8-8-8-8-8-8-| 
|--5--5-5-5-5-5-5---5-5-5-5-5-5-| 
|--5--5-5-5-5-5-5---5-5-5-5-5-5-| 
|--5--5-5-5-5-5-5---5-5-5-5-5-5-| 
|--7--7-7-7-7-7-7---7-7-7-7-7-7-| 
|--5--5-5-5-5-5-5---5-5-5-5-5-5-| 
 
 
  +E  E Q   H         E E   E   E   E   E   E   E 
|-------------------|-------------------------------| 
|-(8)-7-------------|-------------------------------| 
|-------------------|---7p==5---5p==4---------------| 
|-------------------|-------------------7p==5---5p==| 
|-------------------|-------------------------------| 
|-------------------|-------------------------------| 
| 
|  E  E E E E E E E   E S S S S S E   S S S S S E 
|--8--8-8-8-8-8-8-8-|-8-8-8-8-8-8-8---8-8-8-8-8-8---| 
|--5--5-5-5-5-5-5-5-|-5-5-5-5-5-5-5---5-5-5-5-5-5---| 
|--5--5-5-5-5-5-5-5-|-5-5-5-5-5-5-5---5-5-5-5-5-5---| 
|--5--5-5-5-5-5-5-5-|-5-5-5-5-5-5-5---5-5-5-5-5-5---| 
|--7--7-7-7-7-7-7-7-|-7-7-7-7-7-7-7---7-7-7-7-7-7---| 
|--5--5-5-5-5-5-5-5-|-5-5-5-5-5-5-5---5-5-5-5-5-5---| 
 
 
                      Gtr II 
  E E E E E E E E     Q     Q       Q       E   E 
|-----------------||------------------------------| 
|-----------------||o-0-----0-------0-----------1-| 
|-----------------||------------------------0-----| 
|-4-----0---------||------------------------------| 
|---7p5---3p2-0---||o-----------------------------| 
|---------------3-||------------------------------| 
| 
| E E E E E E E E     E S S S S S E   S S S S S E 
|-8-8-8-8-8-8-8-8-||--3-3-3-3-3-3-3---3-3-3-3-3-3-| 
|-5-5-5-5-5-5-5-5-||o-3-3-3-3-3-3-3---3-3-3-3-3-3-| 
|-5-5-5-5-5-5-5-5-||--4-4-4-4-4-4-4---4-4-4-4-4-4-| 
|-5-5-5-5-5-5-5-5-||--5-5-5-5-5-5-5---5-5-5-5-5-5-| 
|-7-7-7-7-7-7-7-7-||o-5-5-5-5-5-5-5---5-5-5-5-5-5-| 
|-5-5-5-5-5-5-5-5-||--3-3-3-3-3-3-3---3-3-3-3-3-3-| 
 
 
  +E  Q       E   Q       Q 
|--------------------------------| 
|-(1)-1-------1---1--------------| 
|-------------------------2------| 
|--------------------------------| 
|--------------------------------| 
|--------------------------------| 
| 
|  E  S S S S S E   S S S S S E 
|--8--8-8-8-8-8-8---8-8-8-8-8-8--| 
|--5--5-5-5-5-5-5---5-5-5-5-5-5--| 
|--5--5-5-5-5-5-5---5-5-5-5-5-5--| 
|--5--5-5-5-5-5-5---5-5-5-5-5-5--| 
|--7--7-7-7-7-7-7---7-7-7-7-7-7--| 
|--5--5-5-5-5-5-5---5-5-5-5-5-5--| 
 
 
   Q        Q          Q           Q 
|-----------0------------------------------| 
|--3-------------------3-------------------| 
|------------------------------------------| 
|------------------------------------------| 
|------------------------------------------| 
|------------------------------------------| 
| 
|  E  S  S  S  S  S  E    S  S  S  S  S  E 
|-10-10-10-10-10-10-10---10-10-10-10-10-10-| 
|--7--7--7--7--7--7--7----7--7--7--7--7--7-| 
|--7--7--7--7--7--7--7----7--7--7--7--7--7-| 
|--7--7--7--7--7--7--7----7--7--7--7--7--7-| 
|--9--9--9--9--9--9--9----9--9--9--9--9--9-| 
|--7--7--7--7--7--7--7----7--7--7--7--7--7-| 
 
 
   W 
|-------------------------------------------| 
|-------------------------------------------| 
|-------------------------------------------| 
|-------------------------------------------| 
|-------------------------------------------| 
|-------------------------------------------| 
| 
|  E  S  S  S  S  S  E  S  S  S  S  S  S  S 
|-10-10-10-10-10-10-10-10-10-10-10-10-10-10-| 
|--7--7--7--7--7--7--7--7--7--7--7--7--7--7-| 
|--7--7--7--7--7--7--7--7--7--7--7--7--7--7-| 
|--7--7--7--7--7--7--7--7--7--7--7--7--7--7-| 
|--9--9--9--9--9--9--9--9--9--9--9--9--9--9-| 
|--7--7--7--7--7--7--7--7--7--7--7--7--7--7-| 
 
 
  Q     Q       Q       E   E   +E  Q       E   Q       Q 
|-----------------------------|-------------------------------| 
|-0-----0-------0-----------1-|-(1)-1-------1---1-------------| 
|-----------------------0-----|-------------------------2-----| 
|-----------------------------|-------------------------------| 
|-----------------------------|-------------------------------| 
|-----------------------------|-------------------------------| 
| 
| E S S S S S E   S S S S S E    E  S S S S S E   S S S S S E 
|-3-3-3-3-3-3-3---3-3-3-3-3-3-|--8--8-8-8-8-8-8---8-8-8-8-8-8-| 
|-3-3-3-3-3-3-3---3-3-3-3-3-3-|--5--5-5-5-5-5-5---5-5-5-5-5-5-| 
|-4-4-4-4-4-4-4---4-4-4-4-4-4-|--5--5-5-5-5-5-5---5-5-5-5-5-5-| 
|-5-5-5-5-5-5-5---5-5-5-5-5-5-|--5--5-5-5-5-5-5---5-5-5-5-5-5-| 
|-5-5-5-5-5-5-5---5-5-5-5-5-5-|--7--7-7-7-7-7-7---7-7-7-7-7-7-| 
|-3-3-3-3-3-3-3---3-3-3-3-3-3-|--5--5-5-5-5-5-5---5-5-5-5-5-5-| 
 
 
   Q        Q          Q           Q 
|-----------0------------------------------| 
|--3-------------------3-------------------| 
|------------------------------------------| 
|------------------------------------------| 
|------------------------------------------| 
|------------------------------------------| 
| 
|  E  S  S  S  S  S  E    S  S  S  S  S  E 
|-10-10-10-10-10-10-10---10-10-10-10-10-10-| 
|--7--7--7--7--7--7--7----7--7--7--7--7--7-| 
|--7--7--7--7--7--7--7----7--7--7--7--7--7-| 
|--7--7--7--7--7--7--7----7--7--7--7--7--7-| 
|--9--9--9--9--9--9--9----9--9--9--9--9--9-| 
|--7--7--7--7--7--7--7----7--7--7--7--7--7-| 
 
 
   W 
|-------------------------------------------| 
|-------------------------------------------| 
|-------------------------------------------| 
|-------------------------------------------| 
|-------------------------------------------| 
|-------------------------------------------| 
| 
|  E  S  S  S  S  S  E  S  S  S  S  S  S  S 
|-10-10-10-10-10-10-10-10-10-10-10-10-10-10-| 
|--7--7--7--7--7--7--7--7--7--7--7--7--7--7-| 
|--7--7--7--7--7--7--7--7--7--7--7--7--7--7-| 
|--7--7--7--7--7--7--7--7--7--7--7--7--7--7-| 
|--9--9--9--9--9--9--9--9--9--9--9--9--9--9-| 
|--7--7--7--7--7--7--7--7--7--7--7--7--7--7-| 
 
 
  Q     Q       Q       E   E   +E   Q           E    Q           E     E 
|-0-----0-------0-------0---0-|-(0)---------------------------------------| 
|-----------------------------|------3-----------3----3-----------1-----0-| 
|-----------------------------|-------------------------------------------| 
|-----------------------------|-------------------------------------------| 
|-----------------------------|-------------------------------------------| 
|-----------------------------|-------------------------------------------| 
| 
| E S S S S S E   S S S S S E    E   S  S  S  S  S  E    S  S  S  S  S  E 
|-8-8-8-8-8-8-8---8-8-8-8-8-8-|--8---8--8--8--8--8--8----8--8--8--8--8--8-| 
|-5-5-5-5-5-5-5---5-5-5-5-5-5-|--7---7--7--7--7--7--7----7--7--7--7--7--7-| 
|-5-5-5-5-5-5-5---5-5-5-5-5-5-|--7---7--7--7--7--7--7----7--7--7--7--7--7-| 
|-5-5-5-5-5-5-5---5-5-5-5-5-5-|--7---7--7--7--7--7--7----7--7--7--7--7--7-| 
|-7-7-7-7-7-7-7---7-7-7-7-7-7-|--7---7--7--7--7--7--7----7--7--7--7--7--7-| 
|-5-5-5-5-5-5-5---5-5-5-5-5-5-|-10--10-10-10-10-10-10---10-10-10-10-10-10-| 
 
 
  +E   Q           E    +Q            Q         W 
|---------------------------------------------|---------------------------| 
|-(0)--0-----------0----(0)-------------------|---------------------------| 
|---------------------------------------------|---------------------------| 
|---------------------------------------------|---------------------------| 
|---------------------------------------------|---------------------------| 
|---------------------------------------------|---------------------------| 
| 
|  E   S  S  S  S  S  E      S  S  S  S  S  E   E S S S S S E S S S S S E 
|--7---7--7--7--7--7--7------7--7--7--7--7--7-|-7-7-7-7-7-7-7-7-7-7-7-7-7-| 
|--7---7--7--7--7--7--7------7--7--7--7--7--7-|-8-8-8-8-8-8-8-8-8-8-8-8-8-| 
|--7---7--7--7--7--7--7------7--7--7--7--7--7-|-7-7-7-7-7-7-7-7-7-7-7-7-7-| 
|--7---7--7--7--7--7--7------7--7--7--7--7--7-|-9-9-9-9-9-9-9-9-9-9-9-9-9-| 
|-10--10-10-10-10-10-10-----10-10-10-10-10-10-|-7-7-7-7-7-7-7-7-7-7-7-7-7-| 
|---------------------------------------------|-0-0-0-0-0-0-0-0-0-0-0-0-0-| 
 
 
  Q     Q       Q       E   E   +E   Q           E    Q           Q 
|-----------------------------|-------------------------------------------| 
|-1-----1-------1-------1---1-|-(1)--0-----------0----0-------------------| 
|-----------------------------|-----------------------------------2-------| 
|-----------------------------|-------------------------------------------| 
|-----------------------------|-------------------------------------------| 
|-----------------------------|-------------------------------------------| 
| 
| E S S S S S E   S S S S S E    E   S  S  S  S  S  E    S  S  S  S  S  E 
|-8-8-8-8-8-8-8---8-8-8-8-8-8-|--8---8--8--8--8--8--8----8--8--8--8--8--8-| 
|-5-5-5-5-5-5-5---5-5-5-5-5-5-|--7---7--7--7--7--7--7----7--7--7--7--7--7-| 
|-5-5-5-5-5-5-5---5-5-5-5-5-5-|--7---7--7--7--7--7--7----7--7--7--7--7--7-| 
|-5-5-5-5-5-5-5---5-5-5-5-5-5-|--7---7--7--7--7--7--7----7--7--7--7--7--7-| 
|-7-7-7-7-7-7-7---7-7-7-7-7-7-|--7---7--7--7--7--7--7----7--7--7--7--7--7-| 
|-5-5-5-5-5-5-5---5-5-5-5-5-5-|-10--10-10-10-10-10-10---10-10-10-10-10-10-| 
 
 
  +Q      H             Q       W 
|-----------------------------|-----------------------------|| 
|-----------------------------|----------------------------o|| 
|-(2)-------------------------|-----------------------------|| 
|-----------------------------|-----------------------------|| 
|-----------------------------|----------------------------o|| 
|-----------------------------|-----------------------------|| 
| 
|  E  S S S S S E S S S S S E   E S S S S S E S S S S S E 
|--3--3-3-3-3-3-3-3-3-3-3-3-3-|-3-3-3-3-3-3-3-3-3-3-3-3-3---|| 
|--3--3-3-3-3-3-3-3-3-3-3-3-3-|-3-3-3-3-3-3-3-3-3-3-3-3-3--o|| 
|--4--4-4-4-4-4-4-4-4-4-4-4-4-|-4-4-4-4-4-4-4-4-4-4-4-4-4---|| 
|--5--5-5-5-5-5-5-5-5-5-5-5-5-|-5-5-5-5-5-5-5-5-5-5-5-5-5---|| 
|--5--5-5-5-5-5-5-5-5-5-5-5-5-|-5-5-5-5-5-5-5-5-5-5-5-5-5--o|| 
|--3--3-3-3-3-3-3-3-3-3-3-3-3-|-3-3-3-3-3-3-3-3-3-3-3-3-3---|| 
 
 
  Q     Q       Q       E   E   +E  Q.           +H 
|-----------------------------|----------------------------------| 
|-1-----1-------1-------1---3-|-(3)-3------------(3)-------------| 
|-----------------------------|----------------------------------| 
|-----------------------------|----------------------------------| 
|-----------------------------|----------------------------------| 
|-----------------------------|----------------------------------| 
| 
| E S S S S S E   S S S S S E    E  S  S S S S E     S S S S S E 
|-8-8-8-8-8-8-8---8-8-8-8-8-8-|--5--5--5-5-5-5-5-----5-5-5-5-5-5-| 
|-5-5-5-5-5-5-5---5-5-5-5-5-5-|--7--7--7-7-7-7-7-----7-7-7-7-7-7-| 
|-5-5-5-5-5-5-5---5-5-5-5-5-5-|--5--5--5-5-5-5-5-----5-5-5-5-5-5-| 
|-5-5-5-5-5-5-5---5-5-5-5-5-5-|--7--7--7-7-7-7-7-----7-7-7-7-7-7-| 
|-7-7-7-7-7-7-7---7-7-7-7-7-7-|--5--5--5-5-5-5-5-----5-5-5-5-5-5-| 
|-5-5-5-5-5-5-5---5-5-5-5-5-5-|--5--5--5-5-5-5-5-----5-5-5-5-5-5-| 
 
 
  W                           Q  Q  Q  Q    H.                   +E    E 
|---------------------------|-------0--3--|-3--------------------(3)---5h==| 
|---------------------------|----3--------|--------------------------------| 
|---------------------------|-------------|--------------------------------| 
|---------------------------|-------------|--------------------------------| 
|---------------------------|-------------|--------------------------------| 
|---------------------------|-------------|--------------------------------| 
| 
| E S S S S S E S S S S S E   W             E  S S S S S E S S S  S  S E 
|-5-5-5-5-5-5-5-5-5-5-5-5-5-|-------------|-3--3-3-3-3-3-3-3-3-3--3--3-3---| 
|-7-7-7-7-7-7-7-7-7-7-7-7-7-|-------------|-3--3-3-3-3-3-3-3-3-3--3--3-3---| 
|-5-5-5-5-5-5-5-5-5-5-5-5-5-|-------------|-4--4-4-4-4-4-4-4-4-4--4--4-4---| 
|-7-7-7-7-7-7-7-7-7-7-7-7-7-|-------------|-5--5-5-5-5-5-5-5-5-5--5--5-5---| 
|-5-5-5-5-5-5-5-5-5-5-5-5-5-|-------------|-5--5-5-5-5-5-5-5-5-5--5--5-5---| 
|-5-5-5-5-5-5-5-5-5-5-5-5-5-|-------------|-3--3-3-3-3-3-3-3-3-3--3--3-3---| 
 
 
  Q.        S S E.    S +E    S S   +E  E   E   S S H 
|-7p========5p3h5p====3-(3)---2h3p|=(3)p0h==2h==3p2h3-------------| 
|---------------------------------|-------------------------------| 
|---------------------------------|-------------------------------| 
|---------------------------------|-------------------------------| 
|---------------------------------|-------------------------------| 
|---------------------------------|-------------------------------| 
| 
| E S S S S S E   S S S  S  S E      E  S S S S S E   S S S S S E 
|-3-3-3-3-3-3-3---3-3-3--3--3-3---|--3--3-3-3-3-3-3---3-3-3-3-3-3-| 
|-3-3-3-3-3-3-3---3-3-3--3--3-3---|--3--3-3-3-3-3-3---3-3-3-3-3-3-| 
|-4-4-4-4-4-4-4---4-4-4--4--4-4---|--4--4-4-4-4-4-4---4-4-4-4-4-4-| 
|-5-5-5-5-5-5-5---5-5-5--5--5-5---|--5--5-5-5-5-5-5---5-5-5-5-5-5-| 
|-5-5-5-5-5-5-5---5-5-5--5--5-5---|--5--5-5-5-5-5-5---5-5-5-5-5-5-| 
|-3-3-3-3-3-3-3---3-3-3--3--3-3---|--3--3-3-3-3-3-3---3-3-3-3-3-3-| 
 
 
  +W                            W                           W 
|-(3)-------------------------|---------------------------|------------------| 
|-----------------------------|---------------------------|------------------| 
|-----------------------------|---------------------------|------------------| 
|-----------------------------|---------------------------|------------------| 
|-----------------------------|---------------------------|------------------| 
|-----------------------------|---------------------------|------------------| 
| 
|  E  S S S S S E S S S S S E   E S S S S S E S S S S S E   Q  Q  +E  E E E 
|--3--3-3-3-3-3-3-3-3-3-3-3-3-|-3-3-3-3-3-3-3-3-3-3-3-3-3-|-3--3--(3)-3-3-3--| 
|--3--3-3-3-3-3-3-3-3-3-3-3-3-|-3-3-3-3-3-3-3-3-3-3-3-3-3-|-3--3--(3)-3-3-3--| 
|--4--4-4-4-4-4-4-4-4-4-4-4-4-|-4-4-4-4-4-4-4-4-4-4-4-4-4-|-4--4--(4)-4-4-4--| 
|--5--5-5-5-5-5-5-5-5-5-5-5-5-|-5-5-5-5-5-5-5-5-5-5-5-5-5-|-5--5--(5)-5-5-5--| 
|--5--5-5-5-5-5-5-5-5-5-5-5-5-|-5-5-5-5-5-5-5-5-5-5-5-5-5-|-5--5--(5)-5-5-5--| 
|--3--3-3-3-3-3-3-3-3-3-3-3-3-|-3-3-3-3-3-3-3-3-3-3-3-3-3-|-3--3--(3)-3-3-3--| 
 
 
  Gtr I 
   W 
|-^3----*| 
|-^3----*| 
|-^4----*| 
|-^5----*| 
|-^5----*| 
|-^3----*| 
 
 
Duration Legend 
--------------- 
W - whole; H - half; Q - quarter; E - 8th; S - 16th; T - 32nd; X - 64th; a - acciaccatura 
+ - note tied to previous; . - note dotted; .. - note double dotted 
Uncapitalized letters represent notes that are staccato (1/2 duration) 
Irregular groupings are notated above the duration line 
Duration letters will always appear directly above the note/fret number it represents the 
duration for.  Duration letters with no fret number below them represent rests.  Multi- 
bar rests are notated in the form Wxn, where n is the number of bars to rest for.  Low 
melody durations appear below the staff 
 
Tablature Legend 
---------------- 
 h   - hammer-on 
 p   - pull-off 
 b   - bend 
 pb  - pre-bend 
 r   - bend release (if no number after the r, then release immediately) 
 /  - slide into or out of (from/to "nowhere") 
 s   - legato slide 
 S   - shift slide 
  - natural harmonic 
{n}  - artificial harmonic 
n(n) - tapped harmonic 
 ~   - vibrato 
 tr  - trill 
 T   - tap 
 TP  - trem. picking 
 PM  - palm muting 
 
/  - tremolo bar dip; n = amount to dip 
  
  - tremolo bar down 
 n/  - tremolo bar up 
/n  - tremolo bar inverted dip 
 =   - hold bend; also acts as connecting device for hammers/pulls 
 <>  - volume swell (louder/softer) 
 x   - on rhythm slash represents muted slash 
 o   - on rhythm slash represents single note slash 
 
Misc Legend 
----------- 
 |  - bar 
||  - double bar 
||o - repeat start 
o|| - repeat end 
*|  - double bar (ending) 
 :  - bar (freetime) 
 $  - Segno 
 &  - Coda 
Tempo markers -  = BPM(8/16=s8/s16), where s8 = swing 8ths, s16 = swing 16ths 
 
 

	  

No existe una video leccione para esta canción

request
LosAcordes
Buscar
auto avanzar rasgueos aumentar disminuir cambiar color esconder acordes gráficos
losacordes exhibir acordes losacordes youTube video losacordes ocultar tabs losacordes ir hacia arriba losacordes