George Harrison

Início > George Har... > acordes

I Dig Love Tablatura

George Harrison

Dificultad:Ningún gradoNingún grado

victborges

tuner correct add songbook print version text version salvar en e-mail
acordesukuleletablaturabajobateríaarmónicaflautacavacopiano Guitar Pro
acordes

I Dig Love

	  

2:47 

e|---------------------------| 
B|-----8--10--/12---12~------| 
G|-/9------------------------| 
D|---------------------------| 
A|---------------------------| 
E|---------------------------| 


e|-/12------------------------12-------------------------| 
B|------12\10\8--8/10----/12------12\--10\8/10--10~------| 
G|--------------------9----------------------------------| 
D|-------------------------------------------------------| 
A|-------------------------------------------------------| 
E|-------------------------------------------------------| 
              .                             . 

e|-------------------------------------------| 
B|-----8--10--10/11--\10\8/10\8---8--10------| 
G|-/9---------------------------9-------9~---| 
D|-------------------------------------------| 
A|-------------------------------------------| 
E|-------------------------------------------| 
       .  .                       .  

e|-----12\---------------| 
B|-12-------12--14~------| 
G|-----------------------| 
D|-----------------------| 
A|-----------------------| 
E|-----------------------| 


e|------15\12-------/17\--15------------------| 
B|-/14---------14-------------17\--12\5~------| 
G|--------------------------------------------| 
D|--------------------------------------------| 
A|--------------------------------------------| 
E|--------------------------------------------| 
               .        

| /   slide up 

| \   slide down 

| ~   vibrato 

| .   staccato 
	  

No existe una video leccione para esta canción

request
LosAcordes
Buscar
auto avanzar rasgueos aumentar disminuir cambiar color esconder acordes gráficos
losacordes exhibir acordes losacordes youTube video losacordes ocultar tabs losacordes ir hacia arriba losacordes