Fionn Regan

Início > Fionn Rega... > acordes

Lines Written In Winter Tablatura

Fionn Regan

Dificultad:Ningún gradoNingún grado

marcnagel

tuner correct add songbook print version text version salvar en e-mail
acordesukuleletablaturabajobateríaarmónicaflautacavacopiano Guitar Pro
acordes

Lines Written In Winter

	  Capotraste 5ª casa 

Intro:  
   C                        Am                      F 
e|------0-----3-----0-----------0------3-----0-----------0------0------3-0---| 
B|--1-----1-----1-----1---1-1------1-----1-----1-1--1------1------1-------0--| 
G|----0-----0-----0-----0-----2------2-----2----------0h2----0h2----0h2------| 
D|--2--2--2--2--2--2--2--2--2--2---2--2--2--2--2--0-3------3------3----00--0-| 
A|-3-----3-----3-----3-----0------0-----0-----0------------------------------| 
E|---3-----3-----3-----3-----0------0-----0-----0--1-1----1-1----1-1---------| 

e|-7--5--5--3--1p0---0-3---------0-------0-----0-----------------------------| 
B|--8---6----5-----3---------1-----1-------1-----1---------------------------| 
G|-7-7-5--544-42--2-x-5--------0-----0-------0-------------------------------| 
D|5---3----------------------2--2---2----2--2---2----------------------------| 
A|------------------------023-3---3---023-3---3---02-------------------------| 
E|---------------------------------------------------------------------------| 

Verso: 
   C             Am          
e|------0------------0----------0--------------------------------------------| 
B|--1------------1----------------1------------------------------------------| 
G|----0------------2-----------------2---------------------------------------| 
D|--2--2--(x4)---2--2--(x4)----2---2-----------------------------------------| 
A|-3-3----------0-0-----------0--0-------------------------------------------| 
E|---------------------------------------------------------------------------| 


Ponte: 
                        F  Am   G  then F  Am  C  G       then G  F  Am 
e|--1--0---3----------------------------1---0--0--3------------3--1--0-------| 
B|---1--0---1-----013---1---1---3-------1---1--1--0------------3--1--1-------| 
G|-2--2--0--0-(x4)------2---2---4-------2---2--0--0------------4--2--2-------| 
D|----------2-----------3---2---5-------3---2--2--0--(x3)------5--3--2-------| 
A|----------------------3---0---5-------3---0--3--2-------- ---5--3--0-------| 
E|----------------------1---0---3-------1---0--3--3------------3--1--0-------| 
	  

No existe una video leccione para esta canción

request
Aumentar uno tonoAumentar uno tono
Aumentar uno semi-tonoAumentar uno semi-tono
Disminuir uno semi-tonoDisminuir uno semi-tono
Disminuir uno tonoDisminuir uno semi-tono
LosAcordes
Buscar
auto avanzar rasgueos aumentar disminuir cambiar color esconder acordes gráficos
losacordes exhibir acordes losacordes youTube video losacordes ocultar tabs losacordes ir hacia arriba losacordes