Fionn Regan

Início > Fionn Rega... > acordes

Clara To Calary Tablatura

Fionn Regan

Dificultad:Ningún gradoNingún grado

marcnagel

tuner correct add songbook print version text version salvar en e-mail
acordesukuleletablaturabajobateríaarmónicaflautacavacopiano Guitar Pro
acordes

Clara To Calary

	  Capotraste 2ª casa 

Verse 

D|------------0------------0------------0-----------0-----------0-----------0-----| 
A|--------10-----------10-----------10-----------9-----------9-----------9--------| 
D|-----0------------0------------0------------0-----------0-----------0-----------| 
D|---------------0-------------------------------------0--------------------------| 
A|----------------------------0------------------------------------0--------------| 
D|--0--------------------------------------0--------------------------------------| 



D|-----------0-----------0-----------0-----------0-----------0-----------0--| 
A|--------7-----------7-----------7-----------0-----------0-----------0-----| 
D|-----0-----------0-----------0-----------0-----------0-----------0--------| 
D|--------------0-----------------------------------0-----------------------| 
A|--------------------------0-----------------------------------0-----------| 
D|--0-----------------------------------0-----------------------------------| 



D|-----------0-----------0-----------0-----------0-----------0-----------0--| 
A|--------0-----------0-----------0-----------0-----------0-----------0-----| 
D|-----0-----------0-----------0-----------0-----------0-----------0--------| 
D|--------------0-----------------------------------0-----------------------| 
A|-(2)----------------------2-----------------------------------0-----------| 
D|--0-----------------------------------0-----------------------------------| 



D|-----------0-----------0-----------0--| 
A|--------0-----------0-----------0-----| 
D|-----0-----------0-----------0--------| 
D|--------------0-----------------------| 
A|--------------------------0-----------| 
D|--0-----------------------------------| 


Chorus 

D|------------0-----------0-----------0------------0-----------0-----------0--| 
A|---------0-----------0-----------0------------0-----------0-----------0-----| 
D|------0-----------0-----------0------------0-----------0-----------0--------| 
D|---------------0-----------0------------------------0-----------0-----------| 
A|----------------------------------------------------------------------------| 
D|--11-----------------------------------11-----------------------------------| 



D|-----------0-----------0-----------0-----------0-----------0-----------0--| 
A|--------0-----------0-----------0-----------0-----------0-----------0-----| 
D|-----0-----------0-----------0-----------0-----------0-----------0--------| 
D|--------------0-----------0-----------------------0-----------0-----------| 
A|--------------------------------------------------------------------------| 
D|--9-----------------------------------9-----------------------------------| 



D|-----------0-----------0-----------0-----------0-----------0-----------0--| 
A|--------0-----------0-----------0-----------0-----------0-----------0-----| 
D|-----0-----------0-----------0-----------0-----------0-----------0--------| 
D|--------------0-----------------------------------0-----------------------| 
A|--------------------------0----------(2)----------------------2-----------| 
D|--0-----------------------------------0-----------------------------------| 



D|-----------0-----------0-----------0-----------0-----------0-----------0---| 
A|--------0-----------0-----------0-----------0-----------0-----------0------| 
D|-----0-----------0-----------0-----------0-----------0-----------0---------| 
D|--------------0-----------------------------------0------------------------| 
A|--------------------------0-----------------------------------0------------| 
D|--0-----------------------------------0------------------------------------| 
	  

No existe una video leccione para esta canción

request
LosAcordes
Buscar
auto avanzar rasgueos aumentar disminuir cambiar color esconder acordes gráficos
losacordes exhibir acordes losacordes youTube video losacordes ocultar tabs losacordes ir hacia arriba losacordes