Fightstar

Início > Fightstar > acordes

Waste a moment Tablatura

Fightstar

Dificultad:Ningún gradoNingún grado

MercurySummer92

tuner correct add songbook print version text version salvar en e-mail
acordesukuleletablaturabajobateríaarmónicaflautacavacopiano Guitar Pro
acordes

Waste a moment

	  Intro 
d#|--------------------------| 
A#|--------------------------| 
F#|--------------------------| 
C#|-7c----7c----7c----7c-----| 
G#|-7c----8c----7c----8c-----| 
C#|-------------------0c-----| 


Intro/Chorus 
d#|------------------------------------------------------| 
A#|------------------------------------------------------| 
F#|--------5------------5------------9-------------------| 
C#|--------3------------3------------7------------0------| (Times 2) 
G#|--------3------------3------------7------------0------| 
C#|--3-3-3-3-3-3--3-3-3-3-3-3--7-7-7-7-7-7--7-7-7-0-7-7--| 
  |  . . .   . .  . . .   . .  . . .   . .  . . .   . . 
d#|------------------| 
A#|------------------| 
F#|--9~------5~------| 
C#|--7~------5~------| 
G#|--7~------3~------| 
C#|--7~------3~------| 


Verse 
d#|--0~------------------------------| 
A#|--0~------------------------------| 
F#|--2~------9~------9~------5~------| 
C#|--2~------7~------9~------5~------| (Times 2) 
G#|--0~------7~------7~------3~------| 
C#|----------7~------7~------3~------| 


Pre-Chorus 
d#|--------------------------| 
A#|--------------------------| 
F#|--------------------------| 
C#|-7c----7c----7c----7c-----| 
G#|-7c----8c----7c----8c-----| 
C#|-------------------0c-----| 


Chorus 
d#|------------------| 
A#|------------------| 
F#|--5c------9c------| 
C#|--3c------7c------| (Times 2) 
G#|--3c------7c------| 
C#|--3c------7c------| 
  | 
d#|---------------| 
A#|---------------| 
F#|--5c------9~---| 
C#|--3c------7~---|  
G#|--3c------7~---| 
C#|--3c------7~---| 


Verse 
d#|--0~------------------------------| 
A#|--0~------------------------------| 
F#|--2~------9~------9~------5~------| 
C#|--2~------7~------9~------5~------| 
G#|--0~------7~------7~------3~------| 
C#|----------7~------7~------3~------| 


Pre-Chorus 
d#|-12--12--12--12--12--12--12--12--15--15--15--15--15--15--15--15---| 
A#|---10--10--10--10--10--10--10--10--10--10--10--10--10--10--10--10-| 
F#|------------------------------------------------------------------| 
C#|------------------------------------------------------------------| 
G#|------------------------------------------------------------------| 
C#|------------------------------------------------------------------| 
  | 
d#|-12--12--12--12--12--12--12--12--15--15--15--15--15--15------------| 
A#|---10--10--10--10--10--10--10--10--10--10--10--10--10--10----------| 
F#|-------------------------------------------------------------------| 
C#|-----------------------------------------------------------3--3----| 
G#|-----------------------------------------------------------3--3----| 
C#|-----------------------------------------------------------3--3----| 
  |                                                           .  . 


Chorus 
d#|------------------| 
A#|------------------| 
F#|--5c------9c------| 
C#|--3c------7c------| (Times 4) 
G#|--3c------7c------| 
C#|--3c------7c------| 


Breakdown 
d#|-----------------------------------| 
A#|-----------------------------------| 
F#|--5c------9c-----10-10-10--9-9-9---| 
C#|--3c------7c------x--x--x--x-x-x---| (Times 3) 
G#|--3c------7c------8--8--8--7-7-7---| 
C#|--3c------7c-----------------------| 


Bridge 
d#|-------------------------------------| 
A#|-------------------------------------| 
F#|-14c-----16c-----17c-----19c---21c---| 
C#|--xc------x-------x-------x-----x----| 
G#|-12c-----14c-----15c-----17c---19c---| 
C#|-------------------------------------| 


Outro 
d#|---------------------------------------------------| 
A#|---------------------------------------------------| 
F#|--12c------7c------5-x-x-x---------5-x-x-x---------| 
C#|--10c------5c------3-x-x-x-0~-0c---3-x-x-x-0~-0c---| 
G#|--10c------5c------3-x-x-x-0~-0c---3-x-x-x-0~-0c---| 
C#|--10c------5c------3-x-x-x-0~-0c---3-x-x-x-0~-0c---| 
  | 
d#|-----------------------------------------------------------------------| 
A#|-----------------------------------------------------------------------| 
F#|--9c------12c------5-x-x-x-5---5-5-5-----------------------------------| 
C#|--7c------10c------3-x-x-x-3---3-3-3----------3---------------3--------| 
G#|--7c------10c------3-x-x-x-3---3-3-3----------3---------------3--------| 
C#|--7c------10c------3-x-x-x-3---3-3-3--0-0-0-0-3-0-0-0-0-0-0-0-3-0-0-0--| 
  |                                      . . . .   . . . . . . .   . . . 
d#|-----------------------------------------------------| 
A#|-----------------------------------------------------| 
F#|-5-x-x-x-5---5-5-5-----------------------------------| 
C#|-3-x-x-x-3---3-3-3----------3---------------3--------| 
G#|-3-x-x-x-3---3-3-3----------3---------------3--------| 
C#|-3-x-x-x-3---3-3-3--0-0-0-0-3-0-0-0-0-0-0-0-3-0-0-0--| 
  |                    . . . .   . . . . . . .   . . . 
d#|---------------| 
A#|---------------| 
F#|-5-x-x-x-------| 
C#|-3-x-x-x-0~----| 
G#|-3-x-x-x-0~----| 
C#|-3-x-x-x-0~----| 


***************************************************************************************** 

-=>Guitar Two, Alex Westaway<=- 

Intro 
d#|---------------------------| 
A#|---------------------------| 
F#|-----Rest-While-Guitar-----| 
C#|--------One-Plays----------| 
G#|---------------------------| 
C#|---------------------------| 


Intro/Chorus 
d#|-----------------------------------| 
A#|-----------------------------------| 
F#|--5c------9c-----10-10-10--9-9-9---| 
C#|--3c------7c------x--x--x--x-x-x---| (Times 2) 
G#|--3c------7c------8--8--8--7-7-7---| 
C#|--3c------7c-----------------------| 
  | 
d#|---------------------------| 
A#|---------------------------| 
F#|-----Rest-While-Guitar-----| 
C#|--------One-Plays----------| 
G#|---------------------------| 
C#|---------------------------| 

Verse (All Times 2) 
d#|-------------------------------------------------------------------------| 
A#|-------------------------------------------------------------------------| 
F#|-------12--------12-------12---------------12-------11-------11----------| 
C#|---10----------10-------10-----10--10--10---------10-------10----10--10--| 
G#|-10--10------10-------10---------10--10--10-----10-------10--------10----| 
C#|-------------------------------------------------------------------------| 
  | 
d#|---------------------------------------------------------------------| 
A#|---------------------------------------------------------------------| 
F#|-------12--------12-------12----------------9------9------9----------| 
C#|---10----------10-------10-----10--10----7--------7------7----7---7--| 
G#|-10--10------10-------10---------10----7---7-----7------7-------7----| 
C#|---------------------------------------------------------------------| 


Pre-Chorus 
d#|-------------------------------------------------------------------------| 
A#|-------------------------------------------------------------------------| 
F#|-------12--------12-------12---------------12-------11-------11----------| 
C#|---10----------10-------10-----10--10--10---------10-------10----10--10--| 
G#|-10--10------10-------10---------10--10--10-----10-------10--------10----| 
C#|-------------------------------------------------------------------------| 
  | 
d#|-------------------------------------------------------------------------| 
A#|-------------------------------------------------------------------------| 
F#|-------12--------12-------12---------------12-------11-------11----------| 
C#|---10----------10-------10-----10--10--10---------10-------10----3--3----| 
G#|-10--10------10-------10---------10--10--10-----10-------10------3--3----| 
C#|-----------------------------------------------------------------3--3----| 
  |                                                                 .  . 


Chorus 
d#|-----------------------------------| 
A#|-----------------------------------| 
F#|--5c------9c-----10-10-10--9-9-9---| 
C#|--3c------7c------x--x--x--x-x-x---| (Times 2) 
G#|--3c------7c------8--8--8--7-7-7---| 
C#|--3c------7c-----------------------| 
  | 
d#|------------------| 
A#|------------------| 
F#|--5c---7c----9~---| 
C#|--3c---x-----x----| 
G#|--3c---5c----7~---| 
C#|--3c--------------| 


Verse (All Times 2) 
d#|-------------------------------------------------------------------------| 
A#|-------------------------------------------------------------------------| 
F#|-------12--------12-------12---------------12-------11-------11----------| 
C#|---10----------10-------10-----10--10--10---------10-------10----10--10--| 
G#|-10--10------10-------10---------10--10--10-----10-------10--------10----| 
C#|-------------------------------------------------------------------------| 
  | 
d#|---------------------------------------------------------------------| 
A#|---------------------------------------------------------------------| 
F#|-------12--------12-------12----------------9------9------9----------| 
C#|---10----------10-------10-----10--10----7--------7------7----7---7--| 
G#|-10--10------10-------10---------10----7---7-----7------7-------7----| 
C#|---------------------------------------------------------------------| 


Pre-Chorus 
d#|-------------------------------------------------------------------------| 
A#|-------------------------------------------------------------------------| 
F#|-------12--------12-------12---------------12-------11-------11----------| 
C#|---10----------10-------10-----10--10--10---------10-------10----10--10--| (Times 2) 
G#|-10--10------10-------10---------10--10--10-----10-------10--------10----| 
C#|-------------------------------------------------------------------------| 


Chorus 
d#|-----------------------------------| 
A#|-----------------------------------| 
F#|--5c------9c-----10-10-10--9-9-9---| 
C#|--3c------7c------x--x--x--x-x-x---| (Times 4) 
G#|--3c------7c------8--8--8--7-7-7---| 
C#|--3c------7c-----------------------| 


Breakdown 
d#|---------------------------------| 
A#|-6-6-6-6-6-6-6-6-8-8-8-8-8-8-8-8-| 
F#|-5-5-5-5-5-5-5-5-7-7-7-7-7-7-7-7-| 
C#|---------------------------------|  
G#|---------------------------------| 
C#|---------------------------------| 
  | 
d#|-------------------------|-------------------------| 
A#|-10-10-10-10-10-10-10-10-|-13-13-13-13-13-13-13-13-| 
F#|--9--9--9--9--9--9--9--9-|-12-12-12-12-12-12-12-12-| 
C#|-------------------------|-------------------------| 
G#|-------------------------|-------------------------| 
C#|-------------------------|-------------------------| 
  | 
d#|---------------------------------| 
A#|-6-6-6-6-6-6-6-6-8-8-8-8-8-8-8-8-| 
F#|-5-5-5-5-5-5-5-5-7-7-7-7-7-7-7-7-| 
C#|---------------------------------|  
G#|---------------------------------| 
C#|---------------------------------| 
  | 
d#|-------------------------|-------------------------| 
A#|-10-10-10-10-10-10-10-10-|-13-13-13-13-13-13-13-13-| 
F#|--9--9--9--9--9--9--9--9-|-12-12-12-12-12-12-12-12-| 
C#|-------------------------|-------------------------| 
G#|-------------------------|-------------------------| 
C#|-------------------------|-------------------------| 
  | 
d#|-------------------------|-------------------------| 
A#|-15-15-15-15-15-15-15-15-|-17-17-17-17-17-17-17-17-| 
F#|-14-14-14-14-14-14-14-14-|-16-16-16-16-16-16-16-16-| 
C#|-------------------------|-------------------------| 
G#|-------------------------|-------------------------| 
C#|-------------------------|-------------------------| 
  | 
d#|-------------------------|-------------------------| 
A#|-18-18-18-18-18-18-18-18-|-20-20-20-20-20-20-20-20-| 
F#|-17-17-17-17-17-17-17-17-|-19-19-19-19-19-19-19-19-| 
C#|-------------------------|-------------------------| 
G#|-------------------------|-------------------------| 
C#|-------------------------|-------------------------| 

Bridge 
d#|----------------------------------| 
A#|----------------------------------| 
F#|--7c------9c-----10c----7c---9c---| 
C#|--x-------x-------x-----x----x----| 
G#|--5c------7c------8c----5c---7c---| 
C#|----------------------------------| 


Outro 
d#|---------------------------------------------------| 
A#|---------------------------------------------------| 
F#|--12c------7c------5-x-x-x---------5-x-x-x---------| 
C#|--10c------5c------3-x-x-x-0~-0c---3-x-x-x-0~-0c---| 
G#|--10c------5c------3-x-x-x-0~-0c---3-x-x-x-0~-0c---| 
C#|--10c------5c------3-x-x-x-0~-0c---3-x-x-x-0~-0c---| 
  | 
d#|-------------------------------------------------------------| 
A#|-------------------------------------------------------------| 
F#|--9c------12c------5---5-5S7---7-7S9--9-9S10--10-10S12---12--| 
C#|--7c------10c------x---x-x-x---x-x-x--x-x--x---x--x--x----x--| 
G#|--7c------10c------3---3-3S5---5-5S7--7-7S=8---8--8S10---10--| 
C#|--7c------10c------------------------------------------------| 
  |                                       
d#|---------------------------------------------------------| 
A#|---------------------------------------------------------| 
F#|--5c-----------5---5-5S7---7-7S9--9-9S10--10-10S12---12--| 
C#|--x------------x---x-x-x---x-x-x--x-x--x---x--x--x----x--| 
G#|--3c-----------3---3-3S5---5-5S7--7-7S=8---8--8S10---10--| 
C#|---------------------------------------------------------| 
  | 
d#|-----------------| 
A#|-----------------| 
F#|--5-x-x-x--------| 
C#|--x-x-x-x--0~----| 
G#|--3-x-x-x--0~----| 
C#|----x-x-x--0~----| 



| /  slide up 
| \  slide down 
| h  hammer-on 
| p  pull-off 
| ~  let ring 
| +  harmonic 
| x  Mute note 
| c  Continuos strumming 
| .  Palm mute 
| s  slide (to next note) 
| =  bridge gap for slide or hammer on's, pull off's. 
	  

No existe una video leccione para esta canción

request
LosAcordes
Buscar
auto avanzar rasgueos aumentar disminuir cambiar color esconder acordes gráficos
losacordes exhibir acordes losacordes youTube video losacordes ocultar tabs losacordes ir hacia arriba losacordes