Fall Out Boy

Início > Fall Out B... > acordes

Fame Infamy Tablatura

Fall Out Boy

Dificultad:Ningún gradoNingún grado

TheCure4321

tuner correct add songbook print version text version salvar en e-mail
acordesukuleletablaturabajobateríaarmónicaflautacavacopiano Guitar Pro
acordes

Fame Infamy

	  Gtr.Legends: 
h - hammer-on 
~ - let it ring 
. - palm muting 
x - dead String 

Gtr.Tuning:Standard(Normal) 

Intro: 
Gtr.1 
e|---------------------------------------------------| 
B|---------------------------------------------------| 
G|-5555----------------------------------------------| 2x 
D|-5555-6666-8888-5555-6666-3333--5--6-5--6-5--6-5---| 
A|-3333-6666-8888-5555-6666-3333--5--6-5--6-5--6-5---| 
E|------4444-6666-3333-4444-1111--3--4-3--4-3--4-3---| 
                                  .  . .  . .  . . 

Gtr.2 
e|--------------------------------------------------------------------------------| 
B|--------------------------------------------------------------------------------| 
G|-12121212-1313--12121212-1313--12121212-88-777777-5555-8888--7--8-7--8-7--8-7---| 
D|-xxxxxxxx-xxxx--xxxxxxxx-xxxx--xxxxxxxx-xx-xxxxxx-xxxx-xxxx--x--x-x--x-x--x-x---| 
A|-10101010-1111--10101010-1111--10101010-66-555555-3333-6666--5--6-5--6-5--6-5---| 
E|--------------------------------------------------------------------------------| 
                                                               .  . .  . .  . . 

-----------------------------------------------------------------------------------------------| 
-----------------------------------------------------------------------------------------------| 
-12121212-1313--12121212-1313--12121212--15-13-10-12-8---88-10-12--88-10-8--7--8-7--8-7--8-7---| 
-xxxxxxxx-xxxx--xxxxxxxx-xxxx--xxxxxxxx--xx-xx--x-xx-x---xx--x-xx--xx--x-x--x--x-x--x-x--x-x---| 
-10101010-1111--10101010-1111--10101010--13-11--8-10-6---66--8-10--66--8-6--5--6-5--6-5--6-5---| 
-----------------------------------------------------------------------------------------------| 
                                                                            .  . .  . .  . . 


Verse 1:I'm a preacher... 
Gtr.1 
e|--------------------------------------------------------------------| 
B|--------------------------------------------------------------------| 
G|-55-555-------------------------------------------------------------| 2x 
D|-55-555--66-666--88-888--55-555--66-666--33-333--5--6-5--6-5--6-5---| 
A|-33-333--66-666--88-888--55-555--66-666--33-333--5--6-5--6-5--6-5---| 
E|---------44-444--66-666--33-333--44-444--11-111--3--4-3--4-3--4-3---| 
                                                   .  . .  . .  . . 


Gtr.2 Enters in the 2nd round of gtr.1: 
e|--------------------------------------------------------------------------| 
B|--------------------------------------------------------------------------| 
G|-55-555--88-888--1010-101010--77-777--88-888-1010-101010--7-8-7-8-7-8-7---| 
D|-xx-xxx--xx-xxx---x-x--x-x-x--xx-xxx--xx-xxx--x-x--x-x-x--x-x-x-x-x-x-x---| 
A|-33-333--66-666---8-8--8-8-8--55-555--66-666--8-8--8-8-8--5-6-5-6-5-6-5---| 
E|--------------------------------------------------------------------------| 
                                                            . . . . . . . 
       
Chorus:When I home...                                   Signing off... 
e|------------------------------------------------      ----------------------------------| 
B|------------------------------------------------      ----------------------------------| 
G|------------------------------------------------ 2x   ----------------------------------| 
D|-5-8-1010-1010-1010-1010---1010-1010-1010-1010-- Then -5-8-7777-9999-3333--7777--9999---| 
A|-3-6--8-8--8-8--8-8--8-8---1010-1010-1010-1010--      -3-6-7777-9999-3333--7777--9999---| 
E|----------------------------8-8--8-8--8-8--8-8--      -----5555-7777-1111--5555--7777---| 

Pre-Verse 2: 
Gtr.1 
e|---------------------------------------------------| 
B|---------------------------------------------------| 
G|-5555----------------------------------------------|  
D|-5555-6666-8888-5555-6666-3333--5--6-5--6-5--6-5---| 
A|-3333-6666-8888-5555-6666-3333--5--6-5--6-5--6-5---| 
E|------4444-6666-3333-4444-1111--3--4-3--4-3--4-3---| 
                                  .  . .  . .  . . 

Gtr.2 
e|--------------------------------------------------------------------------------| 
B|--------------------------------------------------------------------------------| 
G|-12121212-1313--12121212-1313--12121212-88-777777-5555-8888--7--8-7--8-7--8-7---| 
D|-xxxxxxxx-xxxx--xxxxxxxx-xxxx--xxxxxxxx-xx-xxxxxx-xxxx-xxxx--x--x-x--x-x--x-x---| 
A|-10101010-1111--10101010-1111--10101010-66-555555-3333-6666--5--6-5--6-5--6-5---| 
E|--------------------------------------------------------------------------------| 
                                                               .  . .  . .  . . 


Verse 2:I am God's gift... 
Play Verse 1 

Repeat Chorus: 

Bridge: 
Gtr.1 
e|------------------| 
B|------------------| 
G|-5~---------------| 2x 
D|-5~--7~--3~--5~---| 
A|-3~--7~--3~--5~---| 
E|-----5~--1~--3~---| 

Gtr.2 
e|--------------------------------------------------------------------------------------------- 
B|-----5-----8------8--------------------------------------------------------------8-------8--- 
G|-4h5---4h5----4h5----4h5-9-7--4h5-9-7--4h5--7-9--4h5-9-7--4h5-9-7--4h5-9-7---4h5----4h5------  
D|--------------------------------------------------------------------------------------------- 
A|--------------------------------------------------------------------------------------------- 
E|--------------------------------------------------------------------------------------------- 

------------------------------------| 
------------------------------------| 
-4h5-7-9--4h5--7-9--4h5--7-9--4h5---| 
------------------------------------| 
------------------------------------| 
------------------------------------| 


Repeat Chorus: 

Chorus 2:Signing off... 
e|---------------------| 
B|---------------------| 
G|-------44444---------| 4x 
D|-77777-44444-33333---| 
A|-77777-22222-33333---| 
E|-55555-------11111---| 

But it went to his... 
Gtr.1 
e|---------------------------------------------------| 
B|---------------------------------------------------| 
G|-5555----------------------------------------------|  
D|-5555-6666-8888-5555-6666-3333--5--6-5--6-5--6-5---| 
A|-3333-6666-8888-5555-6666-3333--5--6-5--6-5--6-5---| 
E|------4444-6666-3333-4444-1111--3--4-3--4-3--4-3---| 
                                  .  . .  . .  . . 

Gtr.2 
e|--------------------------------------------------------------------------| 
B|--------------------------------------------------------------------------| 
G|-55-555--88-888--1010-101010--77-777--88-888-1010-101010--7-8-7-8-7-8-7---| 
D|-xx-xxx--xx-xxx---x-x--x-x-x--xx-xxx--xx-xxx--x-x--x-x-x--x-x-x-x-x-x-x---| 
A|-33-333--66-666---8-8--8-8-8--55-555--66-666--8-8--8-8-8--5-6-5-6-5-6-5---| 
E|--------------------------------------------------------------------------| 
                                                            . . . . . . . 

End... 


Fame < Infamy Lyrics: 

Verse 1: 
I'm a preacher, Sweating in the pews, 
For the salvation, I'm bringing you, 
I'm a salesman, selling you hooks, and plans, 
and myself making demands, 

Chorus: 
When I'm home alone I just dance by myself 
And you pull my head so close volume goes with the truth 
Signing off "i'm alright in bed but i'm better with a pen" 
The kid was alright but it went to his head 

Verse 2: 
I am gods' gift, why would he bless me with, 
shuch wit without a consience equipped, 
I'm addicted to the way i feel when i think of you, 
"Theres too much green to feel blue" 
When i'm home alone i just can't stop myself. 




	  

No existe una video leccione para esta canción

request
LosAcordes
Buscar
auto avanzar rasgueos aumentar disminuir cambiar color esconder acordes gráficos
losacordes exhibir acordes losacordes youTube video losacordes ocultar tabs losacordes ir hacia arriba losacordes