Fall Out Boy

Início > Fall Out B... > acordes

Fame < Infamy Tablatura

Fall Out Boy

Dificultad:Ningún gradoNingún grado

mateusviegas

tuner correct add songbook print version text version salvar en e-mail
acordesukuleletablaturabajobateríaarmónicaflautacavacopiano Guitar Pro
acordes

Fame < Infamy

	  Standard Tuning (EADGBE) 


Intro 

Guitar 1 
E-------------------------------------------------| 
B-------------------------------------------------|     
G-12-12-12-12-12-12-12-13-12-12-12-12-12-12-12-13-|     
D-x--x--x--x--x--x--x--x--x--x--x--x--x--x--x--x--| 
A-10-10-10-10-10-10-10-11-10-10-10-10-10-10-10-11-| 
E-------------------------------------------------| 

E------------------------------------------------------------| 
B------------------------------------------------------------|     
G-12-12-12-12-12-12-12-8-8-8-7-7-7-7-7-7-7-7-5-5-5-5-5-5-5-5-|     
D-x--x--x--x--x--x--x--x-x-x-x-x-x-x-x-x-x-x-x-x-x-x-x-x-x-x-| 
A-10-10-10-10-10-10-10-6-6-6-5-5-5-5-5-5-5-5-3-3-3-3-3-3-3-3-| 
E------------------------------------------------------------| 

E-------------------------------| 
B-------------------------------|     
G-8-8-8-8-8-8-8-8-7-8-7-8-7-8-7-|     
D-x-x-x-x-x-x-x-x-x-x-x-x-x-x-x-| 
A-6-6-6-6-6-6-6-6-5-6-5-6-5-6-5-| 
E-------------------------------| 

E-------------------------------------------------------------| 
B-------------------------------------------------------------|     
G-12-12-12-12-12-12-12-13-12-12-12-12-12-12-12-13-12-12-13/15-|     
D-x--x--x--x--x--x--x--x--x--x--x--x--x--x--x--x--x--x--x--x--| 
A-10-10-10-10-10-10-10-11-10-10-10-10-10-10-10-11-10-10-11/13-| 
E-------------------------------------------------------------| 

E-------------------------------------------------------------| 
B-------------------------------------------------------------|     
G-12-10-10-10-12-13-12-10-10-8-8-8-10-10-10-10-8-8-8-12-10-10-|     
D-x--x--x--x--x--x--x--x--x--x-x-x-x--x--x--x--x-x-x-x--x--x--| 
A-10-8--8--8--10-11-10-8--8--6-6-6-8--8--8--8--6-6-6-10-8--8--| 
E-------------------------------------------------------------| 

E-------------------| 
B-------------------|     
G-7-7-7-8-7-8-7-8-7-|     
D-x-x-x-x-x-x-x-x-x-| 
A-5-5-5-6-5-6-5-6-5-| 
E-------------------| 

Guitar 2 
E---------------------------------------------------------------------| 
B---------------------------------------------------------------------| x2  
G-55555555----------33333333------------------------------------------|     
D-55555555-66666666-33333333-55555555-66666666-33333333-5-6-5-6-5-6-5-| 
A-33333333-66666666-11111111-55555555-66666666-33333333-5-6-5-6-5-6-5-| 
E----------44444444----------33333333-44444444-11111111-3-4-3-4-3-4-3-| 


Verse (1) x2 

E-------------------------------------------------------------| 
B-------------------------------------------------------------|     
G-5-55-5-55-----------3-33-3-33-------------------------------|     
D-5-55-5-55-6-66-6-66-3-33-3-33-5-55-5-55-6-66-6-66-3-33-3-33-| 
A-3-33-3-33-6-66-6-66-1-11-1-11-5-55-5-55-6-66-6-66-3-33-3-33-| 
E-----------4-44-4-44-----------3-33-3-33-4-44-4-44-1-11-1-11-| 

then... 

(On First Time) 
E---------------| 
B---------------|     
G---------------|     
D-5-6-5-6-5-6-5-| 
A-5-6-5-6-5-6-5-| 
E-3-4-3-4-3-4-3-| 

(On Second Time) 
E-----------| 
B-----------|     
G-----------|     
D-5-6-5-6-x-| 
A-5-6-5-6-x-| 
E-3-4-3-4-x-| 

Guitar 2 (Comes In on the second time) 
E---------------------------------------------------------------| 
B---------------------------------------------------------------|     
G-12-1212-12-1212-8-88-8-88-10-1010-10-1010-5-55-5-55-8-88-8-88-|     
D-x--x-x--x--x-x--x-xx-x-xx-x--x-x--x--x-x--x-xx-x-xx-x-xx-x-xx-| 
A-10-1010-10-1010-6-66-6-66-8--8-8--8--8-8--3-33-3-33-6-66-6-66-| 
E---------------------------------------------------------------| 

E-----------------------| 
B-----------------------|     
G-5-55-5-55-8-7-8-7-8-7-|     
D-x-xx-x-xx-x-x-x-x-x-x-| 
A-3-33-3-33-6-5-6-5-6-5-| 
E-----------------------| 

Chorus 

E-----------------------------------------| 
B-----------------------------------------|  x2    
G---------------------5-55-5-55-5-55-5-55-|     
D-3-33-3-33-3-33-3-33-5-55-5-55-5-55-5-55-| 
A-3-33-3-33-3-33-3-33-3-33-3-33-3-33-3-33-| 
E-1-11-1-11-1-11-1-11---------------------| 

E------------------------------------------------------| 
B------------------------------------------------------|      
G----------33333333---------------------------33333333-|     
D-66666666-33333333-3333333333333333-66666666-33333333-| 
A-66666666-11111111-3333333333333333-66666666-11111111-| 
E-44444444----------1111111111111111-44444444----------| 


Bridge (1) ( 1/2 of Intro Riff) 

Guitar 1 
E-------------------------------------------------| 
B-------------------------------------------------|     
G-12-12-12-12-12-12-12-13-12-12-12-12-12-12-12-13-|     
D-x--x--x--x--x--x--x--x--x--x--x--x--x--x--x--x--| 
A-10-10-10-10-10-10-10-11-10-10-10-10-10-10-10-11-| 
E-------------------------------------------------| 

E------------------------------------------------------------| 
B------------------------------------------------------------|     
G-12-12-12-12-12-12-12-8-8-8-7-7-7-7-7-7-7-7-5-5-5-5-5-5-5-5-|     
D-x--x--x--x--x--x--x--x-x-x-x-x-x-x-x-x-x-x-x-x-x-x-x-x-x-x-| 
A-10-10-10-10-10-10-10-6-6-6-5-5-5-5-5-5-5-5-3-3-3-3-3-3-3-3-| 
E------------------------------------------------------------| 

E-------------------------------| 
B-------------------------------|     
G-8-8-8-8-8-8-8-8-7-8-7-8-7-8-7-|     
D-x-x-x-x-x-x-x-x-x-x-x-x-x-x-x-| 
A-6-6-6-6-6-6-6-6-5-6-5-6-5-6-5-| 
E-------------------------------| 

Guitar 2 
E---------------------------------------------------------------------| 
B---------------------------------------------------------------------|   
G-55555555----------33333333------------------------------------------|     
D-55555555-66666666-33333333-55555555-66666666-33333333-5-6-5-6-5-6-5-| 
A-33333333-66666666-11111111-55555555-66666666-33333333-5-6-5-6-5-6-5-| 
E----------44444444----------33333333-44444444-11111111-3-4-3-4-3-4-3-| 

Verse (2) x2 

Guitar 1 
E-------------------------------------------------------------| 
B-------------------------------------------------------------|     
G-5-55-5-55-----------3-33-3-33-------------------------------|     
D-5-55-5-55-6-66-6-66-3-33-3-33-5-55-5-55-6-66-6-66-3-33-3-33-| 
A-3-33-3-33-6-66-6-66-1-11-1-11-5-55-5-55-6-66-6-66-3-33-3-33-| 
E-----------4-44-4-44-----------3-33-3-33-4-44-4-44-1-11-1-11-| 

then... 

(On First Time) 
E---------------| 
B---------------|     
G---------------|     
D-5-6-5-6-5-6-5-| 
A-5-6-5-6-5-6-5-| 
E-3-4-3-4-3-4-3-| 

(On Second Time) 
E-----------| 
B-----------|     
G-----------|     
D-5-6-5-6-5-| 
A-5-6-5-6-5-| 
E-3-4-3-4-3-| 

Guitar 2 (Comes In on the second time) 
E---------------------------------------------------------------| 
B---------------------------------------------------------------|     
G-12-1212-12-1212-8-88-8-88-10-1010-10-1010-5-55-5-55-8-88-8-88-|     
D-x--x-x--x--x-x--x-xx-x-xx-x--x-x--x--x-x--x-xx-x-xx-x-xx-x-xx-| 
A-10-1010-10-1010-6-66-6-66-8--8-8--8--8-8--3-33-3-33-6-66-6-66-| 
E---------------------------------------------------------------| 

E-----------------------| 
B-----------------------|     
G-5-55-5-55-8-7-8-7-8-7-|     
D-x-xx-x-xx-x-x-x-x-x-x-| 
A-3-33-3-33-6-5-6-5-6-5-| 
E-----------------------| 


<<Chorus>>> 


Bridge (2) 
  
Guitar 1 
E-----0-------0-------3-------3---------0---------0-------0----------| 
B-0h1---1-0-1---1-0h1---1-0-1---1-1-0-1---1-0h1-1---1-0-1---1-1-0--1-| x2    
G--------------------------------------------------------------------|     
D--------------------------------------------------------------------| 
A--------------------------------------------------------------------| 
E--------------------------------------------------------------------| 

Guitar 2 

E-0----2----3----3-| 
B-0----3----3----3-|   x2   
G-0----2----0----0-|     
D-2----0----2----0-| 
A-2----x----3----2-| 
E-0----x----x----3-| 


Chorus/Outro 

E-----------------------------------------| 
B-----------------------------------------|  x2    
G---------------------5-55-5-55-5-55-5-55-|     
D-3-33-3-33-3-33-3-33-5-55-5-55-5-55-5-55-| 
A-3-33-3-33-3-33-3-33-3-33-3-33-3-33-3-33-| 
E-1-11-1-11-1-11-1-11---------------------| 

E-------------------------------------------------------| 
B-------------------------------------------------------|      
G----------33333333-55555555-------------------33333333-|     
D-66666666-33333333-55555555-55555555-66666666-33333333-| 
A-66666666-11111111-33333333-55555555-66666666-11111111-| 
E-44444444-------------------33333333-44444444----------| 

E---------------------| 
B---------------------|      
G-55555555------------|     
D-55555555-5555-3-5-6-| 
A-33333333-5555-3-5-6-| 
E----------3333-1-3-4-| 

E-------------------------------------------------------| 
B-------------------------------------------------------|      
G----------33333333-55555555-------------------33333333-|     
D-66666666-33333333-55555555-55555555-66666666-33333333-| 
A-66666666-11111111-33333333-55555555-66666666-11111111-| 
E-44444444-------------------33333333-44444444----------| 

E----------------------------------------------------------------| 
B----------------------------------------------------------------|     
G-xx-5-55-5-55-----------3-33-3-33-------------------------------|     
D-xx-5-55-5-55-6-66-6-66-3-33-3-33-5-55-5-55-6-66-6-66-3-33-3-33-| 
A-xx-3-33-3-33-6-66-6-66-1-11-1-11-5-55-5-55-6-66-6-66-3-33-3-33-| 
E--------------4-44-4-44-----------3-33-3-33-4-44-4-44-1-11-1-11-| 

E-------------| 
B-------------|     
G-------------|     
D-5-6-5-6-5-6-| 
A-5-6-5-6-5-6-| 
E-3-4-3-4-3-4-| 


	  

No existe una video leccione para esta canción

request
LosAcordes
Buscar
auto avanzar rasgueos aumentar disminuir cambiar color esconder acordes gráficos
losacordes exhibir acordes losacordes youTube video losacordes ocultar tabs losacordes ir hacia arriba losacordes