Extremoduro

Início > Extremodur... > acordes

So Payaso Tablatura

Extremoduro

Dificultad:Ningún gradoNingún grado

gustsilva

tuner correct add songbook print version text version salvar en e-mail
acordesukuleletablaturabajobateríaarmónicaflautacavacopiano Guitar Pro
acordes

So Payaso

	  Principio: Sin Bajo. 

 Puede que me deje llevar... 
 puede que levante la voz... 
 o puede que me arranque sin mas... 
 a ver que me dice despues.. 

despues solo le da a Si una vez cada fraseo de guitarra 

G ------------------------------- 
D ------------------------------- 
A ------------------------------- 
E -----7--------7-------7-------7 

Quiero ser tu perro fiel, tu esclavo... 


luego la linea de bajo es con estos acordes repetidamente Do-Mi 
y para acabar Do# 

G ------------------------------------------------------------------- 
D -------------------2-2-2-2-2-2-2-2-----------------2-2-2-2-2-2-2-2- 
A -3-3-3-3-3-3-3-3-3-----------------3-3-3-3-3-3-3-3----------------- 
E ------------------------------------------------------------------- 

 ------------------------------------------------- 
 ----------------2-2-2-2-2-2-2-2------------------ 
 3-3-3-3-3-3-3-3------------------4-4-4-4-4-4-4-4- 
 ------------------------------------------------- 


en la entrada de todos los instrumentos el bajo hace un ligado desde La 
, probablemente lo haga con un bajo de 5 cuerdas en el traste 10 de la 
 quinta cuerda pero yo lo hago con un bajo de 4 cuerdas y que daria asi. 


G ------------------------------- 
D ------------------------------- 
A -----12/  ---------------------  el ligado seria desde esa nota hacia arriba 
E ------------------------------- 

A ver que me dice despues... 

En el estribillo seria asi. 


G -------------------------- 
D -------------------------- 
A -7-7-9-10---7-7-9-10------  esto repetidamente 
E -------------------------- 

So cretino me tiemblan los pies a su lado.. 


y para acabar el estribillo esto 

G -------------------------------------------------- 
D ------------------2-2-2-2-2-2-2-2----------------- 
A -3-3-3-3-3-3-3-3------------------4-4-4-4-4-4-4-4- 
E -------------------------------------------------- 

Me dice que estoy desconocido... 


En el solo de piano que viene inmediatamente despues del estribillo, 
toca Mi,mi y si 

G ------------------------------- 
D ------------------------------- 
A -7---2---7---2------------------ 
E ---0-------0-------------------- 

y otra vez el fraseo de antes seguido de esto ultimo 

G -------------------------------------------------- 
D ------------------2-2-2-2-2-2-2-2----------------- 
A -3-3-3-3-3-3-3-3------------------4-4-4-4-4-4-4-4- 
E -------------------------------------------------- 



Lo que queda de canción se rige por todo esto con algunas variables 
que el usuario puede reconocer, si teneis alguna duda este es mi facebook 


https://www.facebook.com/david.jimenez.7982 
	  

No existe una video leccione para esta canción

request
LosAcordes
Buscar
auto avanzar rasgueos aumentar disminuir cambiar color esconder acordes gráficos
losacordes exhibir acordes losacordes youTube video losacordes ocultar tabs losacordes ir hacia arriba losacordes