Extremoduro

Início > Extremodur... > acordes

Mi Espritu Imperecedero Tablatura

Extremoduro

Dificultad:Ningún gradoNingún grado

brunblazkowski

tuner correct add songbook print version text version salvar en e-mail
acordesukuleletablaturabajobateríaarmónicaflautacavacopiano Guitar Pro
acordes

Mi Espritu Imperecedero

	  Buena canción mejor cosechadora 
 G  D  C  X2   C  D 

e|------7---0--0-0-0------------------8-7-------0--0-0-----------| 
B|----------10/8-7-7/8---x2-----------0-0-------10-8-7-----------| 
G|--5/7--------------------------5/7-----------------------------| 
D|---------------------------------------------------------------| 
A|---------------------------------------------------------------| 
E|---------------------------------------------------------------| 

G             D           C 
e|-------------------------------------------------7--------------| 
B|-----------------------------------8-----10--8--7---------------| 
G|------------------------------5/7-----5-------------------------| 
D|----------------------------------------------------------------| 
A|----------------------------------------------------------------| 
E|----------------------------------------------------------------| 
Se hace largo el camino sin tí, 

e|---------------------------------------5------------------------| 
B|------------------------------------------7--------5---------7--| 
G|--------------------------------------------7------5---------7--| 
D|--------------------------------5/7------------5---5----7----7--| 
A|----------------------------------------------------------------| 
E|----------------------------------------------------------------| 
y al diablo, que ya no quiero seguir.       Y sin pedirle nada a cambio, 
                                               al diablo el alma le dí. 

        C            D          E 
e|----------------------------------------------------------------| 
B|-----5-5----------7-7--------9-9-(9)----------------------------| 
G|-----5-5----------7-7--------9-9-(9)-----------x4---------------| 
D|-----5-5----------7-7--------9-9-(9)----------------------------| 
A|----------------------------------------------------------------| 
E|----------------------------------------------------------------| 

E|----------------------------------------------------------------| 
B|---------9------7------5----------------------------------------| 
G|---------9------7------5---------X2-----------------------------| 
D|---------9------7------5----------------------------------------| 
A|---5/7----------------------------------------------------------| 
E|----------------------------------------------------------------| 
Si el sol dice que te desenamoras 
si dice que te olvide, vida mía 

    D        E          D 
maldigo cada día  y maldigo el correr de las horas 

                            C       G       D       C 
e|--------------------------7------5------------------------------| 
B|-----------------------------8------7----15---------------------| 
G|-----------------------------------------17b^^--14~---12~-------| 
D|----------------------------------------------------------------| 
A|----------------------------------------------------------------| 
E|----------------------------------------------------------------| 

G                       D      C 
El diablo me visita, y cada noche 
marchita este jardín con su anarquía, 
y en mala compañía  me deja a mi conmigo 
A solas        A solas. 


     G        E          D            C 
e|----------------------------------------------------------------| 
B|--8-------------------------------------------------------------| 
G|--10b~----------------------------------------------------------| 
D|-----------------------7----------5-----------------------------| 
A|-----------------------5----------3-----------------------------| 
E|----------------------------------------------------------------| 

Regalé   mi alma imperecedera 
¿para qué? para que nunca más me duela. 
¿Y ahora qué? Ahora coloco las aceras. 
Ahi al fondo de la calle, jefe, queda un sitio. 
Se marchó, y no hubo despedidas. 
Corazón, que anda buscándose la vida. 
Me llevó al bloque de las dos salidas. 
Dame la pasta, que entro yo, y tu espera fuera 


e|----------------------------------------------------------------------| 
B|----------------------------------------------------------------------| 
G|----------------------------------------------------------------------| 
D|-3/5--7-7--5-7/9~--10-10-9-10/12~---14-14-12-12h14---9-10-9h10-5~-----| 
A|----------------------------------------------------------------------| 
E|----------------------------------------------------------------------| 


e|----------------------------------------------------------------------| 
B|--12---------------12---13-13p12--------------------------------------| 
G|--14b--14-12~------14b-----------14-12-14-----------------------------| 
D|------------------------------------------12~----14p12-------12-------| 
A|-------------------------------------------------------15-14----10~---| 
E|----------------------------------------------------------------------| 

Se ha roto otro peldaño 
de la escalera. 
Soledad y desengaño 
son mi condena. 

G              D      C 
Después de tantos años, 
carcelero, ¿cuánto queda? 
Volver, que me hacen daño 
los minutos de esta espera. 

E|-12p10-------10-------------------------------------------------------| 
B|-------13-12-------10-12-13b-10---------12-13-15-15b--13-12-15--------| 
G|----------------12--------------11-12---------------------------------| 
D|----------------------------------------------------------------------| 
A|----------------------------------------------------------------------| 
E|----------------------------------------------------------------------| 

E|-------------------------------| 
B|-------------------------------| 
G|-----11-12-14-14b--11-12-11~---| 
D|-------------------------------| 
A|-------------------------------| 
E|-------------------------------| 

e|----------------------------------------------------------------------| 
B|----------------------------------------------------------------------| 
G|----------------------------------------------------------------------| 
D|-3/5--7-7--5-7/9~---10-10-9-10/12~---14-14-12-12h14---9-10-9h10-5~----| 
A|----------------------------------------------------------------------| 
E|----------------------------------------------------------------------| 

e|----------------------------------------------------------------------| 
B|-------------------------------------3--------------------------------| 
G|----------------------------2--4--5-----------------------------------| 
D|-------------------2--4--5---------------------x2---------------------| 
A|----------------5-----------------------------------------------------| 
E|----------------------------------------------------------------------| 

G        Em            D    C 
Pregúntale del tiempo,    y a ver si se acuerda de mi 
Pregúntale si es cierto   que nadie la ve sonreír 
Pregúntale que añora y en qué piensa cuando llora 
                                               C      G 
Pregúntale si el tiempo cambia o sigue lloviendo 

e|--------------------------------------------------------------------| 
B|--------------------------------------------------------------------| 
G|-12-----11-12--12----------------12-----11-12--12-11---14-12--------| 
D|----12------------12---10-----------12--------------------------x2--| 
A|--------------------------9-----------------------------------------| 
E|--------------------------------------------------------------------| 


e|--------------------------------------------------------------------| 
B|-12---12---12---10----10--------------------------------------------| 
G|-14b--14b--14b-----12----12-----12-11-12-11----9---9-11--12---------| 
D|-------------------------------------------------12-----------------| 
A|--------------------------------------------------------------------| 
E|--------------------------------------------------------------------| 


E|--------------------------15-17-15-17b---17-15-14-15--15p14---------| 
B|-10-12-10----10----15-17--------------------------------------------| 
G|----------12--------------------------------------------------------| 
D|--------------------------------------------------------------------| 
A|--------------------------------------------------------------------| 
E|--------------------------------------------------------------------| 

e|--------------------------------------------------------------------| 
B|-17-15-17-17p15----13-12-15----12-13-12-15---15p13p12-------12------| 
G|---------------------------------------------------------14---------| 
D|----------------------------------------------------------------12--| 
A|--------------------------------------------------------------------| 
E|--------------------------------------------------------------------| 


e|--------------------------------------------------------------------| 
B|-12-12-12-12---15-----13-13-13-13---15-----12-12-12-12---15---------| 
G|--------------------------------------------------------------------| 
D|--------------------------------------------------------------------| 
A|--------------------------------------------------------------------| 
E|--------------------------------------------------------------------| 


e|--------------------14-15-17---14-----------------------------------| 
B|-17-17-17-17---15------------------15-17-15-12-15----10-12/---------| 
G|--------------------------------------------------12----------------| 
D|--------------------------------------------------------------------| 
A|--------------------------------------------------------------------| 
E|--------------------------------------------------------------------| 

Regalé… 
e|--------------------------------------------------------------------| 
B|-----------------10------12-----------13/---------------------------| 
G|----12--------------------------------------------------------------| 
D|--------------------------------------------------------------------| 
A|--------------------------------------------------------------------| 
E|--------------------------------------------------------------------| 
Ahí al fondo de la calle, jefe, queda un sitio 

e|--------------------------------------------------------------------| 
B|---------------------10-12-13b---12---10---13b--12--10/-------------| 
G|----------------12--------------------------------------------------| 
D|--------------------------------------------------------------------| 
A|--------------------------------------------------------------------| 
E|--------------------------------------------------------------------| 
Se marchó, y no hubo despedidas  corazón, que anda buscándose la vida. 
Me llevó al bloque de las dos salidas 


e|-----------------------------------17-15-14-15----19-17-15-17---x4--| 
B|-------10-12-13-12-10-13-12---x4------------------------------------| 
G|----12--------------------------------------------------------------| 
D|--------------------------------------------------------------------| 
A|--------------------------------------------------------------------| 
E|--------------------------------------------------------------------| 
Dame la pasta, que entro yo, y tu espera fuera 
Dame la pasta, que entro yo, y tu espera 

Regalé… 

e|---------------------------------------------------------------------------| 
B|---------------------------------------------------------------------------| 
G|---------------------------------------------------------------------------| 
D|-3/5~-7-7-5-7/9~---7-7-5-7/9~---7-7-5-7-4-5-----0--2---0-------------------| 
A|-----------------------------------------------------3---2-3-0-2----0------| 
E|------------------------------------------------------------------3---2-3--| 
	  

No existe una video leccione para esta canción

request
Aumentar uno tonoAumentar uno tono
Aumentar uno semi-tonoAumentar uno semi-tono
Disminuir uno semi-tonoDisminuir uno semi-tono
Disminuir uno tonoDisminuir uno semi-tono
LosAcordes
Buscar
auto avanzar rasgueos aumentar disminuir cambiar color esconder acordes gráficos
losacordes exhibir acordes losacordes youTube video losacordes ocultar tabs losacordes ir hacia arriba losacordes