Everclear

Início > Everclear > acordes

Santa Monica Tablatura

Everclear

Dificultad:Ningún gradoNingún grado

tuner correct add songbook print version text version salvar en e-mail
acordesukuleletablaturabaixobateriaarmónicaflautacavacopiano Guitar Pro
acordes

Santa Monica

	  Tabbed by:
Matt Cook
[email protected]

Solos tabbed by Matt Cook ([email protected]) with the
help of Rod Furlott.


    riff #1                 intro     Riff 2
                                         
||--------------------||----------------------------------------------
||--------------------||----------------------------------------------
||--------------------||----------------------------------------------
||--------------------||----------------------------------------------
||---5--5--5--5--5--5-||-5--5---5--5--5--5--5--5--x--x--x--x--|--5--5-
||---3--3--0--0--3--3-||-3--3---3--3--0--0--3--3--------------|--3--3-

                                              I am
still...
--------------------------|----------------3--||------------------------
--------------------------|----------------3--||------------------------
--------------------------|----------------4--||------------------------
--------------------------|----------------5--||------------------------
5--5--5--5--x--x--x-------|----5--5--5--5--5--||---------5---5--5--5----
0--0--3--3----------------|----3--3--0--0--3--||---------3---3--3--3----

            lonely and...
                              
----------------------------------------------|---------------------------
----------------------------------------------|---------------------------
----------------------------------------------|---------------------------
----------------------------------------------|---------------------------
5--5--5--5---x--x--x--x-----5--5--5--5--5--5--|--5--5--5--5--5--5-x-x-x-x-
0--0--3--3------------------3--3--0--0--3--3--|--3--3--0--0--3--3---------

                                                      
                      
Riff 1             D D E C C
I don't wanna be...
C C A G Riff 1 G
Riff 2


Riff 1             D D D E C C
I don't wanna be...
C A G Riff 1
D D D E C C
C A G Riff 1 G

Chorus:
               C C C D G G
We can live...
G G E D D D C G

And so forth:
Enjoy

Solos:

    at :45     Hold bend             Release          
                      
||----------------------------------------------||-
||----------------------------------------------||-
||-------------1/2------------------------------||-
||---------2-~~~---2--2--2--2--2--2--2---2------||-
||----------------------------------------------||-
||----------------------------------------------||-

         at 1:47                              
--||--------7-----7-----||-----------------
--||----/8-----8-----8--||-----------------
--||--------------------||-----------------
--||--------------------||-----------------
--||--------------------||-----------------
--||--------------------||-----------------


at 2:08                   full
----------15------15--17-~~~------||-
-----/17------17------------------||-
----------------------------------||-
----------------------------------||-
----------------------------------||-
----------------------------------||-

at 2:19
                                                      
                 
-12-------------------------------------------
--------15p12---------------------------------
-----------------14p12------12--14--12--------
----------------------------14----------------
----------------------------------------------
----------------------------------------------


                                         Full    End
-----------------------------------------------||---15\--|-------------------
-----------------------------------------------||---12\--|-----10\-----------
-14--12--14----12------12--14-~~~--------------||---12\--|-----12\-----------
---------------14------------------------------||--------|-----12\-----------
-----------------------------------------------||--------|-------------------
-----------------------------------------------||--------|-------------------


From: Kate H. 
Subject: e/everclear/santa_monica.tab

The other tab posted works well with an electric
guitar when the bottom two strings alone are enough,
but I find it harder with an acoustic, so if you want
more depth play it like this:

e -------------------
B -------------------
G -------------------
D 5-5-5-5-5-5-x-x-x-x
A 5-5-5-5-5-5-x-x-x-x
E 3-3-0-0-3-3-x-x-x-x

This makes it sound more full on the acoustic but
keeps most of the style of the previously tabbed
version.

You can play the rest of the song on the same power
chord if you place it right, that way it becomes
ridiculously easy after awhile. (move it so the first
lowest finger is on the starting note for the chord
name the other two just form the chord then, if you
want you can bar it and play the six strings otherwise
play the three)
	  

No existe una video leccione para esta canción

request
Aumentar uno tonoAumentar uno tono
Aumentar uno semi-tonoAumentar uno semi-tono
Disminuir uno semi-tonoDisminuir uno semi-tono
Disminuir uno tonoDisminuir uno semi-tono
LosAcordes
Buscar
auto avanzar rasgueos aumentar disminuir cambiar color esconder acordes gráficos
losacordes exhibir acordes losacordes youTube video losacordes ocultar tabs losacordes ir hacia arriba losacordes