Erick Rubin

Início > Erick Rubi... > acordes

Malas intenciones Tablatura

Erick Rubin

Dificultad:Ningún gradoNingún grado

Brenda Palhares

tuner correct add songbook print version text version salvar en e-mail
acordesukuleletablaturabajobateríaarmónicaflautacavacopiano Guitar Pro
acordes

Malas intenciones

	  Intro: 
 
E5 A5 D5 E5 
 
e|-----------------3-----------------3------| 
B|--5--3--0--3--5-----5--3--0--3--5---------| 
G|------------------------------------------| 
D|------------------------------------------| X 4 
A|------------------------------------------| 
E|------------------------------------------| 
 
C5 
Estoy pensando en ti 
 
voy a hacerte sentir 
           Em 
como lo hizizste a mi 
 
justo ahi 
     C5 
es solo un poco mas 
 
lo que puedo esperar 
         Em 
la bomba va a estallar 
 
no puedo mas 
       Em 
y si pudieras estar en mi lugar 
    A5 
verias que todo es normal 
   D5                                E5 
ahora te va a tocar lo que te coreesponde 
 
 
Choro: 
 
            A5  D             E5 
Se que son malas tus intenciones 
            A5  D             E5 
Por mi ventana pasan mil rumores 
            A5  D  A5  D              E5 
se que son malas malas   tus intenciones 
 
E5 A5 D5 E5 
 
e|-----------------3-----------------3------| 
B|--5--3--0--3--5-----5--3--0--3--5---------| 
G|------------------------------------------| 
D|------------------------------------------| X ATE O Refrão 
A|------------------------------------------| 
E|------------------------------------------| 
 
       E5 
Y se que estas ahi 
             
me puedes oir 
A5 
no ay marcha atras debes continuar 
   D5 
puedes pensar y especular 
    E5 
como esta historia se va a acabar 
 
       E5 
y si pudieras pensar un poco mas 
    A5 
verias q nada sigue igual 
   D5                                    E5 
estoy muy cerca del lugar donde tu te escondes 
 
 
Choro: 
 
            A5  D             E5 
Se que son malas tus intenciones 
            A5  D             E5 
Por mi ventana pasan mil rumores 
            A5  D             E5 
Se que son malas tus intenciones 
            A5  D             E5 
Por mi ventana pasan mil rumores 
            A5  D  A5  D              E5 
se que son malas malas   tus intenciones 
 
e|-----------------------------------------| 
B|-----------------------------------------| 
G|-----------------------------------------| 
D|---2/99999999\22222222222/9999999--------| 
A|-----------------------------------------| 
E|-----------------------------------------| 
 
Estoy pensando en ti 
voy a hacerte sentir como lo hizizste a mi 
es solo un poco mas lo que puedo esperar 
la bomba va a estallar 
 
Choro: 
 
            A5  D             E5 
Se que son malas tus intenciones 
            A5  D             E5 
Por mi ventana pasan mil rumores 
            A5  D             E5 
Se que son malas tus intenciones 
            A5  D             E5 
Por mi ventana pasan mil rumores 
            A5  D A5  D A5  D              E5 
se que son malas malas   malas   tus intenciones 

	  

No existe una video leccione para esta canción

request
Aumentar uno tonoAumentar uno tono
Aumentar uno semi-tonoAumentar uno semi-tono
Disminuir uno semi-tonoDisminuir uno semi-tono
Disminuir uno tonoDisminuir uno semi-tono
LosAcordes
Buscar
auto avanzar rasgueos aumentar disminuir cambiar color esconder acordes gráficos
losacordes exhibir acordes losacordes youTube video losacordes ocultar tabs losacordes ir hacia arriba losacordes