Ellie Goulding

Início > Ellie Goul... > acordes

Halcyon Tablatura

Ellie Goulding

Dificultad:ExpertoExperto

aman_claudino

tuner correct add songbook print version text version salvar en e-mail
acordesukuleletablaturabajobateríaarmónicaflautacavacopiano Guitar Pro
acordes

Halcyon

	  

 

INTRO 
e|------------------| 
B|------------------| 
G|--0-0-0-0-0-0-0-0-| 
D|-2-2-2-2-2-2-2-2--| 
A|------------------| 
E|------------------| 

e|------------------| 
B|------------------| 
G|--0-0-0-0-0-0-0-0-| 
D|-0-0-0-0-0-0-0-0--| 
A|------------------| 
E|------------------| 

e|------------------| 
B|------------------| 
G|--0-0-0-0-0-0-0-0-| 
D|------------------| 
A|-2-2-3-3----------| 
E|---------0-0-0-0--| 

e|------------------| 
B|------------------| 
G|--0-0-0-0-0-0-0-0-| 
D|------------------| 
A|------------------| 
E|-3-3-3-3-3-3-3-3--| 


BEGIN VERSE I 

  I know it's not over baby I worked this out for sure, it's gonna be 
e|------------------| 
B|------------------| 
G|--0-0-0-0-0-0-0-0-| 
D|-2-2-2-2-2-2-2-2--| 
A|------------------| 
E|------------------| 

colder, now you've forced open the door, I know you better 
e|------------------| 
B|------------------| 
G|--0-0-0-0-0-0-0-0-| 
D|-0-0-0-0-0-0-0-0--| 
A|------------------| 
E|------------------| 

than I ever have before, I know you 
e|------------------| 
B|------------------| 
G|--0-0-0-0-0-0-0-0-| 
D|------------------| 
A|-2-2-3-3----------| 
E|---------0-0-0-0--| 

e|------------------| 
B|------------------| 
G|--0-0-0-0-0-0-0-0-| 
D|------------------| 
A|------------------| 
E|-3-3-3-3-3-3-3-3--|  

I know you're a fighter, but you never fought for me, when I was a 
e|------------------| 
B|------------------| 
G|--0-0-0-0-0-0-0-0-| 
D|-2-2-2-2-2-2-2-2--| 
A|------------------| 
E|------------------| 

shelter, so you're not heading home to me, we could be 
e|------------------| 
B|------------------| 
G|--0-0-0-0-0-0-0-0-| 
D|-0-0-0-0-0-0-0-0--| 
A|------------------| 
E|------------------| 

closer, we could be closer, we could be 
e|------------------| 
B|------------------| 
G|--0-0-0-0-0-0-0-0-| 
D|------------------| 
A|-2-2-3-3----------| 
E|---------0-0-0-0--| 

e|----------| 
B|----------| 
G|--0-0-0-0-| 
D|----------| 
A|----------| 
E|-3-3-3-3--| 


CHORUS 

  When it's just us, you 
e|-----------------| 
B|-----------------| 
G|--0-0-0-0-0-0-0-0| 
D|---------2-2-2-2-| 
A|-----------------| 
E|-3-3-3-3---------| 

you show me what it's like to be lonely 
e|----------------|      e|----------------| 
B|----------------|      B|----------------| 
G|0-0-0-0--0-0-0-0|      G|0-0-0-0--0-0-0-0| 
D|-2-2-2-2--------|      D|----------------|  
A|----------------|      A|----------------| 
E|--------3-3-3-3-|  or  E|-0-0-0-03-3-3-3-| 

you show me what it feels like to be lost, I 
e|----------------| 
B|----------------| 
G|-0-0-0-0-0-0-0-0| 
D|0-0-0-0-2-2-2-2-| 
A|----------------| 
E|----------------| 

take your hand for you to let it go, let it go, let it 
e|----------------|      e|----------------| 
B|----------------|      B|----------------| 
G|0-0-0-0--0-0-0-0|      G|0-0-0-0--0-0-0-0| 
D|-2-2-2-2--------|      D|----------------|  
A|----------------|      A|----------------| 
E|--------3-3-3-3-|  or  E|-0-0-0-03-3-3-3-| 

go, let it go  || when it's just us, you 
e|----------------| 
B|----------------| 
G|-0-0-0-0-0-0-0-0| 
D|0-0-0-0-2-2-2-2-| 
A|----------------| 
E|----------------| 

show me what it feels like to be lonely 
e|----------------|      e|----------------| 
B|----------------|      B|----------------| 
G|0-0-0-0--0-0-0-0|      G|0-0-0-0--0-0-0-0| 
D|-2-2-2-2--------|      D|----------------|  
A|----------------|      A|----------------| 
E|--------3-3-3-3-|  or  E|-0-0-0-03-3-3-3-| 

you show me what it feels like to be lost, I 
e|----------------| 
B|----------------| 
G|-0-0-0-0-0-0-0-0| 
D|0-0-0-0-2-2-2-2-| 
A|----------------| 
E|----------------| 

take your hand for you to let it go, let it go, let it 
e|----------------|      e|----------------| 
B|----------------|      B|----------------| 
G|0-0-0-0--0-0-0-0|      G|0-0-0-0--0-0-0-0| 
D|-2-2-2-2--------|      D|----------------|  
A|----------------|      A|----------------| 
E|--------3-3-3-3-|  or  E|-0-0-0-03-3-3-3-| 

go, let it go     it's gonna be 
e|----------------| 
B|----------------| 
G|-0-0-0-0-0-0-0-0| 
D|0-0-0-0-2-2-2-2-| 
A|----------------| 
E|----------------| 

 
	  

No existe una video leccione para esta canción

request
LosAcordes
Buscar
auto avanzar rasgueos aumentar disminuir cambiar color esconder acordes gráficos
losacordes exhibir acordes losacordes youTube video losacordes ocultar tabs losacordes ir hacia arriba losacordes