Ellie Goulding

Início > Ellie Goul... > acordes

Devotion (live) Tablatura

Ellie Goulding

Dificultad:Ningún gradoNingún grado

gustsilva

tuner correct add songbook print version text version salvar en e-mail
acordesukuleletablaturabajobateríaarmónicaflautacavacopiano Guitar Pro
acordes

Devotion (live)

	  
 
Capo


Intro (x2) 

         Am             C                F 
e|----------------------------------------------------------------------------------------| 
B|----1---1---1---1-----------------------------------------------------------------------| 
G|--------------------0---0---2---2---2---2---2---2---------------------------------------| 
D|----------------------------------------------------------------------------------------| 
A|--0---0---0---0---3---3-----------------------------------------------------------------| 
E|--------------------------1---1---1---1---1---1-----------------------------------------| 


verse 1  


Open up and let me in...     
      
           Am             C              F  
E|----------------------------------------------------------------------------------------| 
B|----1---1---1---1-----------------------------------------------------------------------| 
G|--------------------0---0----2---2---2---2---2---2--------------------------------------| 
D|----------------------------------------------------------------------------------------| 
A|--0---0---0---0---3---3-----------------------------------------------------------------| 
E|--------------------------1---1---1---1---1---1-----------------------------------------| 
  
Show me bruises on your skin...  

           Am           C               F 
|-----------------------------------------------------------------------------------------| 
B|----1---1---1---1-----------------------------------------------------------------------| 
G|--------------------0---0----2---2---2---2---2---2--------------------------------------| 
D|----------------------------------------------------------------------------------------| 
A|--0---0---0---0---3---3-----------------------------------------------------------------| 
E|--------------------------1---1---1---1---1---1-----------------------------------------| 

Let the fires all burn out...  

          Dm               Gmaj          Am            C             F     
e|----1---1---1---1-----------------------------------------------------------------------| 
B|--------------------3---3---3---3---1---1---1---1---------------------------------------| 
G|--2---2---2---2-------------------------------------0---0---2---2---2---2---2---2-------| 
D|----------------------------------------------------------------------------------------| 
A|------------------2---2---2---2---0---0---0---0---3---3---------------------------------| 
E|----------------------------------------------------------1---1---1---1---1---1---------| 

Let it go don't be so scared...  

          Am             C              F  
E|----------------------------------------------------------------------------------------| 
B|----1---1---1---1-----------------------------------------------------------------------| 
G|--------------------0---0---2---2---2---2---2---2---------------------------------------| 
D|----------------------------------------------------------------------------------------| 
A|--0---0---0---0---3---3-----------------------------------------------------------------| 
E|--------------------------1---1---1---1---1---1-----------------------------------------| 

Find the love you lost again...  

         Am             C              F  
E|----------------------------------------------------------------------------------------| 
B|----1---1---1---1-----------------------------------------------------------------------| 
G|--------------------0---0---2---2---2---2---2---2---------------------------------------| 
D|----------------------------------------------------------------------------------------| 
A|--0---0---0---0---3---3-----------------------------------------------------------------| 
E|--------------------------1---1---1---1---1---1-----------------------------------------| 

Let the chaos disappear... 

           Dm               Gmaj          Am            C             F     
e|----1---1---1---1-----------------------------------------------------------------------| 
B|--------------------3---3---3---3---1---1---1---1---------------------------------------| 
G|--2---2---2---2-------------------------------------0---0---2---2---2---2---2---2-------| 
D|----------------------------------------------------------------------------------------| 
A|------------------2---2---2---2---0---0---0---0---3---3---------------------------------| 
E|----------------------------------------------------------1---1---1---1---1---1---------| 


Pre-Chorus (x4) 


Cause this is devotion, ahh-ahh, you're the only one I need....  

            F              C             Gmaj             Am 
e|---------------------------------------------------------------------------------------| 
B|--------1-------1-------1-------1-------3-------3-------1-------1----------------------| 
G|----2-------2-------2-------2-------0-------0-------2-------2--------------------------| 
D|---------------------------------------------------------------------------------------| 
A|------------------3---3---3---3---2---2---2---2---0---0---0---0------------------------| 
E|--1---1---1---1------------------------------------------------------------------------| 


Strum Am or improvise with finger-picking for Chorus/break.  


verse 2 


Tell me what you dream about... 

           Am           C               F 
|-----------------------------------------------------------------------------------------| 
B|----1---1---1---1-----------------------------------------------------------------------| 
G|--------------------0---0---2---2---2---2---2---2---------------------------------------| 
D|----------------------------------------------------------------------------------------| 
A|--0---0---0---0---3---3-----------------------------------------------------------------| 
E|--------------------------1---1---1---1---1---1-----------------------------------------| 

I lose you in my sleep some how...  

            Am           C               F 
|-----------------------------------------------------------------------------------------| 
B|----1---1---1---1-----------------------------------------------------------------------| 
G|--------------------0---0---2---2---2---2---2---2---------------------------------------| 
D|----------------------------------------------------------------------------------------| 
A|--0---0---0---0---3---3-----------------------------------------------------------------| 
E|--------------------------1---1---1---1---1---1-----------------------------------------| 

Let the chaos disappear...  

           Dm               Gmaj          Am            C             F     
e|----1---1---1---1-----------------------------------------------------------------------| 
B|--------------------3---3---3---3---1---1---1---1---------------------------------------| 
G|--2---2---2---2-------------------------------------0---0---2---2---2---2---2---2-------| 
D|----------------------------------------------------------------------------------------| 
A|------------------2---2---2---2---0---0---0---0---3---3---------------------------------| 
E|----------------------------------------------------------1---1---1---1---1---1---------| 


Pre-Chorus (x4) 


Cause this is devotion, ahh-ahh, you're the only one I need....  

            F              C             Gmaj             Am 
e|---------------------------------------------------------------------------------------| 
B|--------1-------1-------1-------1-------3-------3-------1-------1----------------------| 
G|----2-------2-------2-------2-------0-------0-------2-------2--------------------------| 
D|---------------------------------------------------------------------------------------| 
A|------------------3---3---3---3---2---2---2---2---0---0---0---0------------------------| 
E|--1---1---1---1------------------------------------------------------------------------| 


End with Am finger-picking pattern.  


************************************ 

| /   slide up 
| \   slide down 
| h   hammer-on 
| p   pull-off 
| ~   vibrato 
| +   harmonic 
| x   Mute note 
| b   Bend 
| pb  Pre-bend 
| br  Bend release 
| pbr Pre-bend release 
| brb Bend release bend 

************************************ 
	  

No existe una video leccione para esta canción

request
Aumentar uno tonoAumentar uno tono
Aumentar uno semi-tonoAumentar uno semi-tono
Disminuir uno semi-tonoDisminuir uno semi-tono
Disminuir uno tonoDisminuir uno semi-tono
LosAcordes
Buscar
auto avanzar rasgueos aumentar disminuir cambiar color esconder acordes gráficos
losacordes exhibir acordes losacordes youTube video losacordes ocultar tabs losacordes ir hacia arriba losacordes