Ellie Goulding

Início > Ellie Goul... > acordes

Army Tablatura

Ellie Goulding

Dificultad:Ningún gradoNingún grado

renejunior

tuner correct add songbook print version text version salvar en e-mail
acordesukuleletablaturabajobateríaarmónicaflautacavacopiano Guitar Pro
acordes

Army

Tono:  Dm Más
Army Key AmAm
Army Key A#mA#m
Army Key BmBm
Army Key CmCm(Disminuir uno tono)
Army Key C#mC#m(Disminuir uno semi-tono)
Army Key DmDm(tono original)
Army Key D#mD#m(Aumentar uno semi-tono)
Army Key EmEm(Aumentar uno tono)
Army Key FmFm
Army Key F#mF#m
Army Key GmGm
Army Key G#mG#m
	  
Intro 

Guitar 1 
         Dm                          
e|--2-2---------------------------------| 
B|------4-4-----------------------------| 
G|-----------3-3-4-4-4------------------|×2 
D|--------------------------------------| 
A|--------------------------------------| 
E|--------------------------------------| 

Guitar 2 

e|--------------------------------------| 
B|--------------------------------------| 
G|---11-11-8-8-3-3-4-4-4----------------|x2 
D|--------------------------------------| 
A|--------------------------------------| 
E|--------------------------------------| 


Verse 

Guitar 1 
        Dm                          
e|--2-2---------------------------------| 
B|------4-4-----------------------------| 
G|-----------3-3-4-4-4------------------|×6 
D|--------------------------------------| 
A|--------------------------------------| 
E|--------------------------------------| 

Guitar 2 

e|--------------------------------------| 
B|--------------------------------------| 
G|---11-11-8-8-3-3-4-4-4----------------|x6 
D|--------------------------------------| 
A|--------------------------------------| 
E|--------------------------------------| 

Guitar 1 
         Dm                          
e|--2-2---------------------------------| 
B|------4-4-----------------------------| 
G|-----------3-3-4-4-4------------------|×2 
D|--------------------------------------| 
A|--------------------------------------| 
E|--------------------------------------| 

Guitar 2 

e|--------------------------------------| 
B|--------------------------------------| 
G|--------------------------------------|x2 
D|---3-3-5-5-7-7-8-8--------------------| 
A|--------------------------------------| 
E|--------------------------------------| 

Know that we don't look like much 
But no one f*cks it up like us 


verse 2 

Guitar 1 
          Dm                          
e|--2-2---------------------------------| 
B|------4-4-----------------------------| 
G|-----------3-3-4-4-4------------------|×6 
D|--------------------------------------| 
A|--------------------------------------| 
E|--------------------------------------| 

Guitar 2 

e|--------------------------------------| 
B|--------------------------------------| 
G|---11-11-8-8-3-3-4-4-4----------------|x6 
D|--------------------------------------| 
A|--------------------------------------| 
E|--------------------------------------| 

Guitar 1 
         Dm                          
e|--2-2---------------------------------| 
B|------4-4-----------------------------| 
G|-----------3-3-4-4--------------------|×2 
D|--------------------------------------| 
A|--------------------------------------| 
E|--------------------------------------| 

Guitar 2 

e|--------------------------------------| 
B|--------------------------------------| 
G|--------------------------------------|x2 
D|---3-3-5-5-7-7-8-8--------------------| 
A|--------------------------------------| 
E|--------------------------------------| 

We both know what they say about us 
But they don't stand a chance because 


Chorus 

Guitar 1 
          Dm                          
e|--2-2--------------------------------| 
B|------4-4----------------------------| 
G|-----------3-3-4-4-4-----------------|×7 
D|-------------------------------------| 
A|-------------------------------------| 
E|-------------------------------------| 

Guitar 2 

e|-------------------------------------| 
B|-------------------------------------| 
G|---11-11-8-8-3-3-4-4-4---------------|x7 
D|-------------------------------------| 
A|-------------------------------------| 
E|-------------------------------------| 



verse 3 

Guitar 1 
          Dm                         
e|--2-2--------------------------------| 
B|------4-4----------------------------| 
G|-----------3-3-4-4-4-----------------|×6 
D|-------------------------------------| 
A|-------------------------------------| 
E|-------------------------------------| 

Guitar 2 

e|-------------------------------------| 
B|-------------------------------------| 
G|---11-11-8-8-3-3-4-4-4---------------|x6 
D|-------------------------------------| 
A|-------------------------------------| 
E|-------------------------------------| 


Guitar 1 
         Dm                          
e|--2-2--------------------------------| 
B|------4-4----------------------------| 
G|-----------3-3-4-4-------------------|×2 
D|-------------------------------------| 
A|-------------------------------------| 
E|-------------------------------------| 

Guitar 2 

e|-------------------------------------| 
B|-------------------------------------| 
G|-------------------------------------|x2 
D|---3-3-5-5-7-7-8-8-------------------| 
A|-------------------------------------| 
E|-------------------------------------| 

We both know what they say about us 
But they don't stand a chance because 


Chorus 

Guitar 1 
          Dm                          
e|--2-2--------------------------------| 
B|------4-4----------------------------| 
G|-----------3-3-4-4-4-----------------|×7 
D|-------------------------------------| 
A|-------------------------------------| 
E|-------------------------------------| 

Guitar 2 

e|-------------------------------------| 
B|-------------------------------------| 
G|---11-11-8-8-3-3-4-4-4---------------|x7 
D|-------------------------------------| 
A|-------------------------------------| 
E|-------------------------------------| 


Outro 

Guitar 1 
          Dm                          
e|--2-2--------------------------------| 
B|------4-4----------------------------| 
G|-----------3-3-4-4-4-----------------|×8 
D|-------------------------------------| 
A|-------------------------------------| 
E|-------------------------------------| 

Guitar 2 

e|-------------------------------------| 
B|-------------------------------------| 
G|---11-11-8-8-3-3-4-4-4---------------|x8 
D|-------------------------------------| 
A|-------------------------------------| 
E|-------------------------------------| 


Guitar 1 
          Dm                          
e|--2-2--------------------------------| 
B|------4-4----------------------------| 
G|-----------3-3-4-4-4-----------------|×8 
D|-------------------------------------| 
A|-------------------------------------| 
E|-------------------------------------| 

Guitar 2 

e|-------------------------------------| 
B|-------------------------------------| 
G|---11-11-8-8-3-3-4-4-4---------------|x8 
D|-------------------------------------| 
A|-------------------------------------| 
E|-------------------------------------| 

Guitar 1 
          Dm                          
e|--2-2--------------------------------| 
B|------4-4----------------------------| 
G|-----------3-3-4-4-4-----------------|×14 
D|-------------------------------------| 
A|-------------------------------------| 
E|-------------------------------------| 

Guitar 2 

e|-------------------------------------| 
B|-------------------------------------| 
G|---11-11-8-8-3-3-4-4-4---------------|x14 
D|-------------------------------------| 
A|-------------------------------------| 
E|-------------------------------------| 

Standing with an army x15 
	  

No existe una video leccione para esta canción

request
Aumentar uno tonoAumentar uno tono
Aumentar uno semi-tonoAumentar uno semi-tono
Disminuir uno semi-tonoDisminuir uno semi-tono
Disminuir uno tonoDisminuir uno semi-tono
LosAcordes
Buscar
auto avanzar rasgueos aumentar disminuir cambiar color esconder acordes gráficos
losacordes exhibir acordes losacordes youTube video losacordes ocultar tabs losacordes ir hacia arriba losacordes