Ed Sheeran

Início > Ed Sheeran > acordes

Tenerife Tablatura

Ed Sheeran

Dificultad:PrincipiantePrincipiante

tamamoreira

tuner correct add songbook print version text version salvar en e-mail
acordesukuleletablaturabajobateríaarmónicaflautacavacopiano Guitar Pro
acordes

Tenerife

	  

*Was originally called Tenerife Sea but his new album tracklist calls it Tenerife* 
* 
*  


h = hammer on 
p = pull-off 
~ = Ring out 

Intro: x1 
e|-----------------------------------------------------| 
B|---------0-----------0--------------0h2p0-------0----| 
E|-----0-----------0-----------0---0----------0--------| 
D|---2---2-------4---4-------2---2----2---------2------| x3 
A|-------------------------0---------------------------| 
E|-0-----------2---------------------------------------| 

e|-----------------------------------------------------------------------| 
B|---------0-----------------------------------------------------------0-| 
E|-----0-----------0-------------0-----------0-----------0-----------0---| 
D|---6---6-------4---4---------2---2-------2---2-------2---2-------2-----| 
A|-4-----------2-----------0-----------0-----------0-----------0---------| 
E|-----------------------------------------------------------------------| 

verse 1: x1 (You look so wonderful in your dress) 
e|-----------------------------------------------------| 
B|---------0-----------0--------------0h2p0------0-----| 
E|-----0-----------0-----------0---0--------0----------| 
D|---2---2-------4---4-------2---2------------2--------| x2 
A|-------------------------0---------------------------| 
E|-0-----------2---------------------------------------| 

e|-----------------------------------------------| 
B|---------0-----------0-------------------------| 
E|-----0-----------0-------------0-----------0---| 
D|---2---2-------4---4---------2---2-------2---2-|  
A|-------------------------0-----------0---------| 
E|-0-----------2---------------------------------| 

e|-------------------------------------------------| 
B|-----------------------------------------------0-| 
E|-----0---0-------0---0---------0-----------0-----| 
D|---6-----------4-------------2---2-------2-------| 
A|-4-----4-----2-----2-----0-----------0-----------| 
E|-------------------------------------------------| 

e|-----------------------------------------------------| 
B|---------0-----------0--------------0h2p0------0-----| 
E|-----0-----------0-----------0---0--------0----------| 
D|---2---2-------4---4-------2---2------------2--------| x3 
A|-------------------------0---------------------------| 
E|-0-----------2---------------------------------------| 

e|-----------------------------------------------| 
B|-----------------------------------------------| 
E|-----0---0-------0---0---------0-----------0---| 
D|---6-----------4-------------2---2-------2---2-| 
A|-4-----4-----2-----2-----0-----------0---------| 
E|-----------------------------------------------| 

Pre-Chorus 1: x1 (Should this be the last thing I see) 
e|-------------------------------------------------| 
B|----------0-----------0-----------0------------0-| 
E|------0-----------0-----------0-----------0------| 
D|----2---2-------2---2-------2---2-------4---4----| x2 
A|-0-----------0-----------2-----------2-----------| 
E|-------------------------------------------------| 

e|-------------------------------------------------| 
B|----------0-----------0-----------0------------0-| 
E|------0-----------0-----------0-----------0------| 
D|----2---2-------2---2-------2---2-------2---2----|  
A|-0-----------0-----------2-----------2-----------| 
E|-------------------------------------------------| 

e|----------------------| 
B|----------------------| 
E|---0----0----0----0---| 
D|-----4----4----4------| 
A|-2--------------------| 
E|----------------------| 

Chorus 1: x1 (I'm So in love) 
e|-----------------------------------------------------| 
B|---------0-----------0--------------0h2p0------0-----| 
E|-----0-----------0-----------0---0--------0----------| 
D|---2---2-------4---4-------2---2------------2--------| x3 
A|-------------------------0---------------------------| 
E|-0-----------2---------------------------------------| 

e|------------------------------------------------------------------------| 
B|---------0------------0-----------------------------------------------0-| 
E|-----0-----------0-------------0-----------0-----------0-----------0----| 
D|---2---2-------4---4---------2---2-------2---2-------2---2-------2------| 
A|-------------------------0-----------0-----------0-----------0----------| 
E|-0-----------2----------------------------------------------------------| 

verse 2: Repeat verse 1  

Pre-Chorus 2: Repeat Pre-Chorus 1 

Chorus 2: x1 First part is played a little bit different from the first Chorus 
e|-----------------------------------------------| 
B|-----------------------------------0h2p0-------| 
E|-0----0-----------0----------0---0-------0---0-| 
D|-2--2---2------4-----------2---2-----------2---|  
A|-2-----------------------0---------------------| 
E|-0-----------2---------------------------------| 

e|-----------------------------------------------------| 
B|---------0-----------0--------------0h2p0------0-----| 
E|-----0-----------0-----------0---0--------0----------| 
D|---2---2-------4---4-------2---2------------2--------| x2 
A|-------------------------0---------------------------| 
E|-0-----------2---------------------------------------| 

e|-------------------------------------------------| 
B|---------0------------0-----------------------0--| 
E|-----0-----------0-------------0-----------0-----| 
D|---2---2-------4---4---------2---2-------2-------| 
A|-------------------------0-----------0-----------| 
E|-0-----------2-----------------------------------| 

Bridge: (Lumiere...) Repeat this segment 6x 
e|---------------------------------------------------------------------------| 
B|-------0--------0--------0--------0--------0---------0---------0---------0-| 
E|-----0--------0--------0--------0--------0---------0---------0---------0---| 
D|---6--------6--------2--------2--------4---------4---------2---------2-----| 
A|-4--------4--------0--------0--------2---------2---------0---------0-------| 
E|---------------------------------------------------------------------------| 

e|---------------------------------------------------------------------------| 
B|-------0--------0--------0--------0--------0---------0---------0---------0-| 
E|-----0--------0--------0--------0--------0---------0---------0---------0---| 
D|---6--------6--------2--------2--------4---------4---------4---------4-----| 
A|-4--------4--------0--------0--------2---------2---------2---------2-------| 
E|---------------------------------------------------------------------------| 

Pre-Chorus 3: Repeat Pre-Chorus 1 

Chorus 3: Repeat Chorus 2 

Outro: (You look so wonderful in your dress) 
e|-----------------------------------------------------| 
B|---------------------------------------------------0-| 
E|------0-------------0-------------0-------------0----| 
D|---2-----2-------4-----4-------2-----2-------2-------| x2 
A|---------------------------0-------------0-----------| 
E|-0-----------2---------------------------------------| 

e|-------------------------------| 
B|-------------------------------| 
E|------0-------------0----------| 
D|---2-----2-------4-----4---2~--|  
A|---------------------------0~--| 
E|-0-----------2-----------------| 
	  

No existe una video leccione para esta canción

request
LosAcordes
Buscar
auto avanzar rasgueos aumentar disminuir cambiar color esconder acordes gráficos
losacordes exhibir acordes losacordes youTube video losacordes ocultar tabs losacordes ir hacia arriba losacordes