Dream Theater

Início > Dream Thea... > acordes

Through her eyes Tablatura

Dream Theater

Dificultad:FácilFácil

tuner correct add songbook print version text version salvar en e-mail
acordesukuleletablaturabaixobateríaarmónicaflautacavacopiano Guitar Pro
acordes

Through her eyes

	   
G
She never really had a chance  
D
On that fateful moonlit night  
Em9
Sacrificed without a fight  
C9
A victim of her circumstance  
  
G
Now that I've become aware  
D
And I've exposed this tragedi  
Em9
A sadness grows inside of me  
C9
It all seems so unfair  

Em                                     D
I'm learning all about my life  
                                       G
By looking through her eyes  

(solo1)
G D Em9 C9
  
G
Just beyond the churchyard gates  
D
Where the grass is overgrown  
Em9
I saw the writing on her stone  
C9
I felt like I would suffocate  
  
G
In loving memory of our child  
D
So innocent, eyes open wide  
Em9
I felt so empty as I cried  
C9
Like part of me had died  
  
Em                                    D
I'm learning all about my life  
                                        Am
By looking through her eyes  
  

And as her image  
C
Wandered through my head  
G
I wept just like a baby  
        D
As I lay awake in bed  
  
Am
And I know what it's like  
C
To lose someone you love  
         Em                       D
And this felt just the same  
  
G
She wasn't given any choice  
D
Desperation stole her voice  
Em9
I've been given so much more in life  
C9
I've got a son, I've got a wife  

G  
I had to suffer one last time  
D
To grieve for her and say goodbye  
Em9
Relive the anguish of my past  
C9
To find out who I was at last  
  
Em                              D
The door has opened wide  
                                 C               
I'm turning with the tide  
Am                              G  	          D            Em9             C9      
Looking through her eyes. (solo 2)



Essa vai vocês: Lívia e luiza sathler & Lisa Stefanelli !!!
Amu vcs!!
Bjos


Solo 1:

E---------------------------------------7-------
B----10b--10b(10)--8~-----8-----10b1/2-------5~-
G-7---------------------------------------------
D-----------------------------------------------
A-----------------------------------------------
E-----------------------------------------------

E-----------------------------------------------
B---7b(7)---------------------------------------
G------------4U---5UU----4nl5---4u--------------
D-----------------------------------------------
A-----------------------------------------------
E-----------------------------------------------



Solo 2(2x):

E-----------------------------------------------
B----10b--10b(10)--8~-----8---10b1/2---12----5~-
G-7---------------------------------------------
D-----------------------------------------------
A-----------------------------------------------
E-----------------------------------------------

E-----------------------------------------------
B---7b(7)---------------------------------------
G------------4U--5UU-----4-5--7b1/2-------------
D-----------------------------------------------
A-----------------------------------------------
E-----------------------------------------------

E-----------------------------------10---8---7--
B----10b--10b(10)--8--10------------------------
G-------------------------------7---------------
D-----------------------------------------------
A-----------------------------------------------
E-----------------------------------------------

E---------------------------------------------------
B---10-10---8------8--10b1/2---12----7nl8-----------
G-------------------------------------------9b1/2---
D---------------------------------------------------
A---------------------------------------------------
E---------------------------------------------------


E-------------------------      Volta rapidamente
B-------------------------          pro inicio
G----4----2b1/2-----------            desse mesmo
D-----------------5-------                solo !
A-------------------------
E-------------------------


Tradução:

b = Bend Full
b1/2 = bend de meio tom
nl = nota ligada
~ = vibrato com a mão esquerda
U = bend de meio tom deixando a nota soar menos
UU = é igual ao primeiro, fazendo duas vezes porém dando 1 paletada só


O melhor remédio para pegar o solo é sempre acompanhar junto com a música, 
ainda mais quando se lê em tablatura.


_______________________________________________________
Contribuição: Vinicius Pessoa([email protected])
	  

No existe una video leccione para esta canción

request
Aumentar uno tonoAumentar uno tono
Aumentar uno semi-tonoAumentar uno semi-tono
Disminuir uno semi-tonoDisminuir uno semi-tono
Disminuir uno tonoDisminuir uno semi-tono
LosAcordes
Buscar
auto avanzar rasgueos aumentar disminuir cambiar color esconder acordes gráficos
losacordes exhibir acordes losacordes youTube video losacordes ocultar tabs losacordes ir hacia arriba losacordes