Dream Theater

Início > Dream Thea... > acordes

This Dying Soul Tablatura

Dream Theater

Dificultad:ExpertoExperto

tuner correct add songbook print version text version salvar en e-mail
acordesukuleletablaturabaixobateríaarmónicaflautacavacopiano Guitar Pro
acordes

This Dying Soul

	  E||------------------|-------------------|------------------|------------------|------------------| 
B||------------------|-------------------|------------------|------------------|------------------| 
G||------------------|-------------------|------------------|------------------|------------------| 
D||------------------|-------------------|------------------|------------------|------------------| 
A||------------------|--2----------------|------------------|------------------|------------------| 
E||--4-------4-------|--2----------------|------------------|------------------|------------------| 
B||-----3~------2~---|--0----------------|------------------|------------------|------------------| 
                                                                             
------------------|------------------|------------------|------------------| 
------------------|------------------|------------------|------------------| 
------------------|------------------|------------------|------------------| 
------------------|------------------|------------------|------------------| 
------------------|------------------|------------------|------------------| 
------------------|------------------|------------------|------------------| 
------------------|------------------|------------------|------------------| 
                                                                                    
---------------------------|---------------------------|---------------------------| 
---------------------------|---------------------------|---------------------------| 
---------------------------|---------------------------|---------------------------| 
---------------------------|---------------------------|---------------------------| 
---------------------------|---------------------------|---------------------------| 
---------------------------|---------------------------|---------------------------| 
--0-0-0-0-0--0-0--0-0------|--0-0-0-0-0--0-0--0-0------|--0-0-0-0-0--0-0--0-0------| 
 
----------------------------|---------------------------|---------------------------| 
----------------------------|---------------------------|---------------------------| 
-----------------------5----|---------------------------|---------------------------| 
-----------------------4----|---------------------------|---------------------------| 
-----------------------3----|---------------------------|---------------------------| 
----------------------------|---------------------------|---------------------------| 
--0-0-0-0-0--0-0--0-0-------|--0-0-0-0-0--0-0--0-0------|--0-0-0-0-0--0-0--0-0------| 
 
 
                                                                                      
---------------------------|----------------------------|---------------------------| 
---------------------------|----------------------------|---------------------------| 
---------------------------|-----------------------5----|---------------------------| 
---------------------------|-----------------------4----|---------------------------| 
---------------------------|-----------------------3----|---------------------------| 
---------------------------|----------------------------|---------------------------| 
--0-0-0-0-0--0-0--0-0------|--0-0-0-0-0--0-0--0-0-------|--0-0-0-0-0--0-0--0-0------| 
 
 
                                                                                        
----------------------------|---------------------------|-----------------------------| 
----------------------------|---------------------------|-----------------------------| 
-----------------------5----|---------------------------|-----------------------------| 
-----------------------4----|---------------------------|-----------------------------| 
-----------------------3----|---------------------------|-----------------------------| 
----------------------------|---------------------------|-----------------------------| 
--0-0-0-0-0--0-0--0-0-------|--0-0-0-0-0--0-0--0-0------|--0-0-0-0-0--0-0-3-2-0-3-2-0-| 
 
 
                                                                                      
---------------------------|----------------------------|---------------------------| 
---------------------------|----------------------------|---------------------------| 
---------------------------|-----------------------5----|---------------------------| 
---------------------------|-----------------------4----|---------------------------| 
---------------------------|-----------------------3----|---------------------------| 
---------------------------|----------------------------|---------------------------| 
--0-0-0-0-0--0-0--0-0------|--0-0-0-0-0--0-0--0-0-------|--0-0-0-0-0--0-0--0-0------| 
 
 
                                                                                      
-----------------------------------------|--------------------|---------------------| 
-----------------------------------------|--12b---------------|--14------9~---------| 
-----------------------------------------|--------------------|---------------------| 
-----------------------------------------|--------------------|---------------------| 
-----------------------------------------|--------------------|---------------------| 
-----------------3----4----5----4--5--6--|--------------------|---------------------| 
--0-0-0-0-0--0-0-1----2----3----2--3--4--|--------------------|---------------------| 
 
 
                                                      
-------------------------------|--------------------| 
----9--10--12/-10----9----7/---|--18~---------------| 
-------------------------------|--------------------| 
-------------------------------|--------------------| 
-------------------------------|--------------------| 
-------------------------------|--------------------| 
-------------------------------|--------------------| 
 
 
                                                                                   
------17-19-21-22t21-19-17----17-19-21-22t21-22t21-19-17----17-19-21-22t21-19-17-| 
---21----------------------21----------------------------21----------------------| 
---------------------------------------------------------------------------------| 
---------------------------------------------------------------------------------| 
---------------------------------------------------------------------------------| 
---------------------------------------------------------------------------------| 
---------------------------------------------------------------------------------| 
 
 
                                                                                        
-----17-19-21-22t21-22t19-17-16-------16-17-19-17-16----------16-17-19-17-19-17-16----| 
--21----------------------------18-19----------------19-18-19----------------------19-| 
--------------------------------------------------------------------------------------| 
--------------------------------------------------------------------------------------| 
--------------------------------------------------------------------------------------| 
--------------------------------------------------------------------------------------| 
--------------------------------------------------------------------------------------| 
 
 
                                                                                        
--------16-17-19-17-16-------14-16-17-19-17-19-17-16-14-13-------13-14-13----------13-| 
--18-19----------------19-18-------------------------------14-15----------15-14-15----| 
--------------------------------------------------------------------------------------| 
--------------------------------------------------------------------------------------| 
--------------------------------------------------------------------------------------| 
--------------------------------------------------------------------------------------| 
--------------------------------------------------------------------------------------| 
 
 
                                                                           
--16t13-16t13-10-9-10-13-17t13-10-9-10-19t13-19t13-10-9-21t13-21t13-10-9-| 
-------------------------------------------------------------------------| 
-------------------------------------------------------------------------| 
-------------------------------------------------------------------------| 
-------------------------------------------------------------------------| 
-------------------------------------------------------------------------| 
-------------------------------------------------------------------------| 
 
 
                                                                                                   
------------------------------------------------------|------------------------------------------| 
--12-13-12----12~---12------12--13--12----12-13-12----|--12/-19--19----19------19--20--19~-------| 
-----------14-----------14-------------------------14-|--------------------21--------------------| 
------------------------------------------------------|------------------------------------------| 
------------------------------------------------------|------------------------------------------| 
------------------------------------------------------|------------------------------------------| 
------------------------------------------------------|------------------------------------------| 
 
 
                                                                                                
--------------------------------------------------|-------------------------------------------| 
--12-13-12----12~---12------12--13--12/---19--20--|--22~-------20--19-20-19-------------------| 
-----------14-----------14------------------------|-------------------------21~-------21/-14--| 
--------------------------------------------------|-------------------------------------------| 
--------------------------------------------------|-------------------------------------------| 
--------------------------------------------------|-------------------------------------------| 
--------------------------------------------------|-------------------------------------------| 
 
 
                                                            
----------------------------------------------------------| 
--12-13-12----12~---12--0-0-15-0-13-0-12-0-10-0-12-0-13-0-| 
-----------14---------------------------------------------| 
----------------------------------------------------------| 
----------------------------------------------------------| 
----------------------------------------------------------| 
----------------------------------------------------------| 
 
 
                                                              
---------------------------------------------------------20-| 
--12-13-12----12/-19--19------19-20-19----19----19-20-22----| 
-----------14-------------21-----------21-------------------| 
------------------------------------------------------------| 
------------------------------------------------------------| 
------------------------------------------------------------| 
------------------------------------------------------------| 
 
 
                                                                                  
--19-20-19----19----------------19-20-22----------------------------------------| 
-----------22----22-20-19-20-22----------19-20-19----19----------------19-20-22-| 
--------------------------------------------------21----21-19----19-21----------| 
--------------------------------------------------------------22----------------| 
--------------------------------------------------------------------------------| 
--------------------------------------------------------------------------------| 
--------------------------------------------------------------------------------| 
 
 
                                                                               
--------------------------------------------------17-19-20-17-19-20-19-20-22-| 
-----------------------------------------17-19-20----------------------------| 
--16-17-16----16----------------16-17-19-------------------------------------| 
-----------19----19-17-16-17-19----------------------------------------------| 
-----------------------------------------------------------------------------| 
-----------------------------------------------------------------------------| 
-----------------------------------------------------------------------------| 
 
 
                                                                                                 
--24~-------24/-----------|----------------------|----------------------|----------------------| 
--------------------------|----------------------|----------------------|----------------------| 
--------------------------|----------------------|----------------------|----------------------| 
--------------------------|----------------------|----------------------|----------------------| 
--------------------------|----------------------|----------------------|----------------------| 
--------------------------|----------------------|----------------------|----------------------| 
--------------------------|----------------------|----------------------|----------------------| 
 
 
                                                                                                 
----------------------|----------------------|----------------------|--------------------------| 
----------------------|----------------------|----------------------|--------------------------| 
----------------------|----------------------|----------------------|--------------------------| 
----------------------|----------------------|----------------------|--------------------------| 
----------------------|----------------------|----------------------|--------------------------| 
----------------------|----------------------|----------------------|--------------------------| 
----------------------|----------------------|----------------------|--------------------------| 
 
 
                                                                                             
----------------------|----------------------|----------------------|----------------------| 
----------------------|----------------------|----------------------|----------------------| 
----------------------|----------------------|----------------------|----------------------| 
----------------------|----------------------|----------------------|----------------------| 
----------------------|----------------------|----------------------|----------------------| 
----------------------|----------------------|----------------------|----------------------| 
----------------------|----------------------|----------------------|----------------------| 
 
 
                                                                                                 
----------------------|----------------------|----------------------|--------------------------| 
----------------------|----------------------|----------------------|--------------------------| 
----------------------|----------------------|----------------------|--------------------------| 
----------------------|----------------------|----------------------|--------------------------| 
----------------------|----------------------|----------------------|--------------------------| 
----------------------|----------------------|----------------------|--------------------------| 
----------------------|----------------------|----------------------|--------------------------| 
 
 
                                                                                  
--------------------------|--------------------------|--------------------------| 
--------------------------|--------------------------|--------------------------| 
--------------------------|--------------------------|--------------------------| 
--------------------------|--------------------------|--------------------------| 
--------------------------|--------------------------|--------------------------| 
--------------------------|--------------------------|--------------------------| 
--------------------------|--------------------------|--------------------------| 
 
 
                                                                                  
--------------------------|--------------------------|--------------------------| 
--------------------------|--------------------------|--------------------------| 
--------------------------|--------------------------|--------------------------| 
--------------------------|--------------------------|--------------------------| 
--------------------------|--------------------------|--------------------------| 
--------------------------|--------------------------|--------------------------| 
--------------------------|--------------------------|--------------------------| 
 
 
                                                                                            
--------------------------|--------------------------|-----------7-------8--7-----7-------| 
--------------------------|--------------------------|------------------------------------| 
--------------------------|--------------------------|-----------4-------5--4-----4-------| 
--------------------------|--------------------------|------------------------------------| 
--------------------------|--------------------------|--0h-2--2-------2--------2-------2--| 
--------------------------|--------------------------|------------------------------------| 
--------------------------|--------------------------|------------------------------------| 
 
 
                                                                           
-----------7-------8--7-------------|-----------7-------8--7-----7-------| 
----------------------------8--7----|------------------------------------| 
-----------4-------5--4-------------|-----------4-------5--4-----4-------| 
----------------------------5--4----|------------------------------------| 
--0h-2--2-------2--------2----------|--0h-2--2-------2--------2-------2--| 
------------------------------------|------------------------------------| 
------------------------------------|------------------------------------| 
 
 
                                                                           
-----------7-------8--7-------------|-----------7-------8--7-----7-------| 
----------------------------8--7----|------------------------------------| 
-----------4-------5--4-------------|-----------4-------5--4-----4-------| 
----------------------------5--4----|------------------------------------| 
--0h-2--2-------2--------2----------|--0h-2--2-------2--------2-------2--| 
------------------------------------|------------------------------------| 
------------------------------------|------------------------------------| 
 
 
                                                                           
-----------7-------8--7-------------|-----------7-------8--7-----7-------| 
----------------------------8--7----|------------------------------------| 
-----------4-------5--4-------------|-----------4-------5--4-----4-------| 
----------------------------5--4----|------------------------------------| 
--0h-2--2-------2--------2----------|--0h-2--2-------2--------2-------2--| 
------------------------------------|------------------------------------| 
------------------------------------|------------------------------------| 
 
 
                                                                           
-----------7-------8--7-------------|-----------7-------8--7-----7-------| 
----------------------------8--7----|------------------------------------| 
-----------4-------5--4-------------|-----------4-------5--4-----4-------| 
----------------------------5--4----|------------------------------------| 
--0h-2--2-------2--------2----------|--0h-2--2-------2--------2-------2--| 
------------------------------------|------------------------------------| 
------------------------------------|------------------------------------| 
 
 
                                                                           
-----------7-------8--7-------------|-----------7-------8--7-----7-------| 
----------------------------8--7----|------------------------------------| 
-----------4-------5--4-------------|-----------4-------5--4-----4-------| 
----------------------------5--4----|------------------------------------| 
--0h-2--2-------2--------2----------|--0h-2--2-------2--------2-------2--| 
------------------------------------|------------------------------------| 
------------------------------------|------------------------------------| 
 
 
                                                                                               
-----------7-------8--7-------------|-----------------------------|--------------------------| 
----------------------------8--7----|-----------------------------|--------------------------| 
-----------4-------5--4-------------|-----------------------------|--------------------------| 
----------------------------5--4----|-----------------------------|--------------------------| 
--0h-2--2-------2--------2----------|--2--2----2------------------|--------------------------| 
------------------------------------|--2--2----2------------------|--------------------------| 
------------------------------------|--0--0----0------------------|--------------------------| 
 
 
                                                                   
-----------------------------|-----------------------------------| 
-----------------------------|-----------------------------------| 
-----------------------------|-----------------------------------| 
-----------------------------|-----------------------------------| 
--2--2----2------------------|--2--2----2----------------5--4----| 
--2--2----2------------------|--2--2----2-------3--2-----3--2----| 
--0--0----0------------------|--0--0----0----0--1--0--0----------| 
 
 
                                                                         
----------------------------------|------------------------------------| 
----------------------------------|------------------------------------| 
----------------------------------|------------------------------------| 
----------------------------------|------------------------------------| 
----------------------------------|---------------------------10--9~---| 
--5--7-----7~-----8--7-----7~-----|--5--7-----7~-----8--7--------------| 
--------0---------------0---------|--------0---------------0-----------| 
 
 
                                                                        
----------------------------------|-----------------------------------| 
----------------------------------|-----------------------------------| 
----------------------------------|-----------------------------------| 
----------------------------------|-----------------------------------| 
----------------------------------|-----------------------------------| 
--5--7-----7~-----8--7-----7~-----|--5--7-----7~-----8--7-----3--2~---| 
--------0---------------0---------|--------0---------------0----------| 
 
 
                                                                         
----------------------------------|------------------------------------| 
----------------------------------|------------------------------------| 
----------------------------------|------------------------------------| 
----------------------------------|------------------------------------| 
----------------------------------|---------------------------10--9~---| 
--5--7-----7~-----8--7-----7~-----|--5--7-----7~-----8--7--------------| 
--------0---------------0---------|--------0---------------0-----------| 
 
 
                                                                        
----------------------------------|-----------------------------------| 
----------------------------------|-----------------------------------| 
----------------------------------|-----------------------------------| 
----------------------------------|-----------------------------------| 
----------------------------------|-----------------------------------| 
--5--7-----7~-----8--7-----7~-----|--5--7-----7~-----8--7-----3--2~---| 
--------0---------------0---------|--------0---------------0----------| 
 
 
                                                                           
------------------------------------|------------------------------------| 
------------------------------------|------------------------------------| 
-----------4-------5--4-----4-------|-----------4-------5--4-------------| 
------------------------------------|----------------------------5--4----| 
--0--2--2-------2--------2-----2----|--0--2--2-------2--------2----------| 
------------------------------------|------------------------------------| 
------------------------------------|------------------------------------| 
 
 
                                                                          
-----------------------------------|------------------------------------| 
-----------------------------------|------------------------------------| 
----------4-------5--4-----4-------|----------4-----4----------4-----4--| 
----------2------------------------|-------0----------------2-----------| 
-------2---------------------------|--5----------------0----------0-----| 
--0------------0--------0-----0----|--3----------3----------------------| 
-----------------------------------|------------------------------------| 
 
 
                                                                          
------------------------------------|-----------------------------------| 
------------------------------------|-----------------------------------| 
-----------4-------5--4-----4-------|-----------4---------------4-------| 
------------------------------------|------------------------0----------| 
--0--2--2-------2--------2-----2----|--0--2--2-----2----5---------------| 
------------------------------------|-------------------3----------3----| 
------------------------------------|-----------------------------------| 
 
 
                                                                         
-----------------------------------|-----------------------------------| 
-----------------------------------|-----------------------------------| 
----------4-------5--4-----5-------|-----------4---------------4-------| 
-----------------------------------|--------2---------------0----------| 
-----------------------------------|-----2-----------------------------| 
--2----2-------2--------2-----2----|--0-----------0--------------------| 
-----------------------------------|-------------------3----------3----| 
 
 
                                                                                                   
------------------------------------------------------|------------------------------------------| 
--12-13-12----12~---12------12--13--12----12-13-12----|--12/-19--19----19------19--20--19~-------| 
-----------14-----------14-------------------------14-|--------------------21--------------------| 
------------------------------------------------------|------------------------------------------| 
------------------------------------------------------|------------------------------------------| 
------------------------------------------------------|------------------------------------------| 
------------------------------------------------------|------------------------------------------| 
 
 
                                                                                                
--------------------------------------------------|-------------------------------------------| 
--12-13-12----12~---12------12--13--12/---19--20--|--22~-------20--19-20-19-------------------| 
-----------14-----------14------------------------|-------------------------21~-------21/-14--| 
--------------------------------------------------|-------------------------------------------| 
--------------------------------------------------|-------------------------------------------| 
--------------------------------------------------|-------------------------------------------| 
--------------------------------------------------|-------------------------------------------| 
 
 
                                                            
----------------------------------------------------------| 
--12-13-12----12~---12--0-0-15-0-13-0-12-0-10-0-12-0-13-0-| 
-----------14---------------------------------------------| 
----------------------------------------------------------| 
----------------------------------------------------------| 
----------------------------------------------------------| 
----------------------------------------------------------| 
 
 
                                                              
---------------------------------------------------------20-| 
--12-13-12----12/-19--19------19-20-19----19----19-20-22----| 
-----------14-------------21-----------21-------------------| 
------------------------------------------------------------| 
------------------------------------------------------------| 
------------------------------------------------------------| 
------------------------------------------------------------| 
 
 
                                                                                                  
--19-20-19----19----19------19--20--19----20--22--|--22r---20--19-20-19-----19------------------| 
-----------22-----------22------------------------|---------------------22------22~-------22/---| 
--------------------------------------------------|---------------------------------------------| 
--------------------------------------------------|---------------------------------------------| 
--------------------------------------------------|---------------------------------------------| 
--------------------------------------------------|---------------------------------------------| 
--------------------------------------------------|---------------------------------------------| 
 
 
                                                                                                 
--------------------------------------|---------------------------|----------------------------| 
--------------------------------------|---------------------------|----------------------------| 
--------------------------------------|---------------------------|-----------------------5----| 
--------------------------------------|---------------------------|-----------------------4----| 
--10-9-7--------9-7-5-----------------|---------------------------|-----------------------3----| 
---------10-8-7-------8-7-5-----------|---------------------------|----------------------------| 
----------------------------8-7-------|--0-0-0-0-0--0-0--0-0------|--0-0-0-0-0--0-0--0-0-------| 
 
 
                                                                                       
---------------------------|-----------------------------|---------------------------| 
---------------------------|-----------------------------|---------------------------| 
---------------------------|-----------------------------|---------------------------| 
---------------------------|-----------------------------|---------------------------| 
---------------------------|-----------------------------|---------------------------| 
---------------------------|-----------------------------|---------------------------| 
--0-0-0-0-0--0-0--0-0------|--0-0-0-0-0--0-0-3-2-0-3-2-0-|--0-0-0-0-0--0-0--0-0------| 
 
 
                                                                                           
----------------------------|---------------------------|--------------------------------| 
----------------------------|---------------------------|--------------------------------| 
-----------------------5----|---------------------------|--------------------------------| 
-----------------------4----|---------------------------|--------------------------------| 
-----------------------3----|---------------------------|--------------------------------| 
----------------------------|---------------------------|-----------------3----4----5----| 
--0-0-0-0-0--0-0--0-0-------|--0-0-0-0-0--0-0--0-0------|--0-0-0-0-0--0-0-1----2----3----| 
 
 
                                                                                      
---------------------------|----------------------------|---------------------------| 
---------------------------|----------------------------|---------------------------| 
---------------------------|-----------------------5----|---------------------------| 
---------------------------|-----------------------4----|---------------------------| 
---------------------------|-----------------------3----|---------------------------| 
---------------------------|----------------------------|---------------------------| 
--0-0-0-0-0--0-0--0-0------|--0-0-0-0-0--0-0--0-0-------|--0-0-0-0-0--0-0--0-0------| 
 
 
                                                                                        
-----------------------------|---------------------------|----------------------------| 
-----------------------------|---------------------------|----------------------------| 
-----------------------------|---------------------------|-----------------------5----| 
-----------------------------|---------------------------|-----------------------4----| 
-----------------------------|---------------------------|-----------------------3----| 
-----------------------------|---------------------------|----------------------------| 
--0-0-0-0-0--0-0-3-2-0-3-2-0-|--0-0-0-0-0--0-0--0-0------|--0-0-0-0-0--0-0--0-0-------| 
 
 
                                                                                                
---------------------------|-----------------------------------------|------------------------| 
---------------------------|-----------------------------------------|------------------------| 
---------------------------|-----------------------------------------|------------------------| 
---------------------------|-----------------------------------------|------------------------| 
---------------------------|-----------------------------------------|------------------------| 
---------------------------|-----------------3----4----5----4--5--6--|--2--4----4----4--5--4--| 
--0-0-0-0-0--0-0--0-0------|--0-0-0-0-0--0-0-1----2----3----2--3--4--|--0--2----2----2--3--2--| 
 
 
                                                                                              
-------------------|------------------------|----------------------|------------------------| 
-------------------|------------------------|----------------------|------------------------| 
-------------------|------------------------|----------------------|------------------------| 
-------------------|------------------------|----------------------|------------------------| 
-------------------|------------------------|----------------------|------------------------| 
----4--------------|--2--4----4----4--5--4--|----4----2--4--2------|--2--4----4----4--5--4--| 
----2--------------|--0--2----2----2--3--2--|----2----0--2--0------|--0--2----2----2--3--2--| 
 
 
                                                                       
-------------------|------------------------|------------------------| 
-------------------|------------------------|------------------------| 
-------------------|------------------------|------------4--4--4--4--| 
-------------------|------------------------|------------------------| 
-------------------|------------------------|------------------------| 
----4--------------|--2--4----4----4--5--4--|----4-------------------| 
----2--------------|--0--2----2----2--3--2--|----2----0--------------| 
 
 
                                                                         
----------------------------------|------------------------------------| 
----------------------------------|------------------------------------| 
----------------------------------|------------------------------------| 
----------------------------------|------------------------------------| 
----------------------------------|---------------------------10--9~---| 
--5--7-----7~-----8--7-----7~-----|--5--7-----7~-----8--7--------------| 
--------0---------------0---------|--------0---------------0-----------| 
 
 
                                                                                                    
----------------------------------|-----------------------------------|---------------------------| 
----------------------------------|-----------------------------------|---------------------------| 
----------------------------------|-----------------------------------|---------------------------| 
----------------------------------|-----------------------------------|---------------------------| 
----------------------------------|-----------------------------------|---------------------------| 
--5--7-----7~-----8--7-----7~-----|--5--7-----7~-----8--7-----3--2~---|---------------------------| 
--------0---------------0---------|--------0---------------0----------|--2-2-2-2-2--2-2--2-2------| 
 
 
                                                                                        
----------------------------|---------------------------|-----------------------------| 
----------------------------|---------------------------|-----------------------------| 
-----------------------7----|---------------------------|-----------------------------| 
-----------------------6----|---------------------------|-----------------------------| 
-----------------------5----|---------------------------|-----------------------------| 
----------------------------|---------------------------|-----------------------------| 
--2-2-2-2-2--2-2--2-2-------|--2-2-2-2-2--2-2--2-2------|--2-2-2-2-2--2-2-5-4-2-5-4-2-| 
 
 
                                                                                      
---------------------------|----------------------------|---------------------------| 
---------------------------|----------------------------|---------------------------| 
---------------------------|-----------------------7----|---------------------------| 
---------------------------|-----------------------6----|---------------------------| 
---------------------------|-----------------------5----|---------------------------| 
---------------------------|----------------------------|---------------------------| 
--2-2-2-2-2--2-2--2-2------|--2-2-2-2-2--2-2--2-2-------|--2-2-2-2-2--2-2--2-2------| 
 
 
                                                                                        
-----------------------------------------|------------------------|-------------------| 
-----------------------------------------|------------------------|-------------------| 
-----------------------------------------|------------------------|-------------------| 
-----------------------------------------|------------------------|-------------------| 
-----------------------------------------|------------------------|-------------------| 
-----------------5----6----7----6--7--8--|--4--6----6----6--7--6--|----6--------------| 
--2-2-2-2-2--2-2-3----4----5----4--5--6--|--2--4----4----4--5--4--|----4--------------| 
 
 
                                                                                               
------------------------|-----------------------|------------------------|-------------------| 
------------------------|-----------------------|------------------------|-------------------| 
------------------------|-----------------------|------------------------|-------------------| 
------------------------|-----------------------|------------------------|-------------------| 
------------------------|-----------4--6--------|------------------------|-------------------| 
--4--6----6----6--7--6--|----6------------7--6--|--4--6----6----6--7--6--|----6--------------| 
--2--4----4----4--5--4--|----4------------------|--2--4----4----4--5--4--|----4--------------| 
 
 
                                                                                     
------------------------|-----------------------|----------------------------------| 
------------------------|-----------------------|----------------------------------| 
------------------------|-----------------------|----------------------------------| 
------------------------|-----------------------|----------------------------------| 
------------------------|-----------4-----2--1--|----------------------------------| 
--4--6----6----6--7--6--|----6------------------|--5--7-----7~-----8--7-----7~-----| 
--2--4----4----4--5--4--|----4---------2--------|--------0---------------0---------| 
 
 
                                                                         
------------------------------------|----------------------------------| 
------------------------------------|----------------------------------| 
------------------------------------|----------------------------------| 
------------------------------------|----------------------------------| 
---------------------------10--9~---|----------------------------------| 
--5--7-----7~-----8--7--------------|--5--7-----7~-----8--7-----7~-----| 
--------0---------------0-----------|--------0---------------0---------| 
 
 
                                                                          
-----------------------------------|------------------------------------| 
-----------------------------------|------------------------------------| 
-----------------------------------|-----------4-------5--4-----4-------| 
-----------------------------------|------------------------------------| 
-----------------------------------|--0--2--2-------2--------2-----2----| 
--5--7-----7~-----8--7-----3--2~---|------------------------------------| 
--------0---------------0----------|------------------------------------| 
 
 
                                                                          
------------------------------------|-----------------------------------| 
------------------------------------|-----------------------------------| 
-----------4-------5--4-------------|----------4-------5--4-----4-------| 
----------------------------5--4----|----------2------------------------| 
--0--2--2-------2--------2----------|-------2---------------------------| 
------------------------------------|--0------------0--------0-----0----| 
------------------------------------|-----------------------------------| 
 
 
                                                                           
------------------------------------|------------------------------------| 
------------------------------------|------------------------------------| 
----------4-----4----------4-----4--|-----------4-------5--4-----4-------| 
-------0----------------2-----------|------------------------------------| 
--5----------------0----------0-----|--0--2--2-------2--------2-----2----| 
--3----------3----------------------|------------------------------------| 
------------------------------------|------------------------------------| 
 
 
                                                                         
-----------------------------------|-----------------------------------| 
-----------------------------------|-----------------------------------| 
-----------4---------------4-------|----------4-------5--4-----5-------| 
------------------------0----------|-----------------------------------| 
--0--2--2-----2----5---------------|-----------------------------------| 
-------------------3----------3----|--2----2-------2--------2-----2----| 
-----------------------------------|-----------------------------------| 
 
 
                                                                                            
-----------------------------------|------------------------------------------------------| 
-----------------------------------|--12-13-12----12~---12------12--13--12----12-13-12----| 
-----------4---------------4-------|-----------14-----------14-------------------------14-| 
--------2---------------0----------|------------------------------------------------------| 
-----2-----------------------------|------------------------------------------------------| 
--0-----------0--------------------|------------------------------------------------------| 
-------------------3----------3----|------------------------------------------------------| 
 
 
                                                                                               
------------------------------------------|--------------------------------------------------| 
--12/-19--19----19------19--20--19~-------|--12-13-12----12~---12------12--13--12/---19--20--| 
--------------------21--------------------|-----------14-----------14------------------------| 
------------------------------------------|--------------------------------------------------| 
------------------------------------------|--------------------------------------------------| 
------------------------------------------|--------------------------------------------------| 
------------------------------------------|--------------------------------------------------| 
 
 
                                             
-------------------------------------------| 
--22~-------20--19-20-19-------------------| 
-------------------------21~-------21/-14--| 
-------------------------------------------| 
-------------------------------------------| 
-------------------------------------------| 
-------------------------------------------| 
 
 
                                                            
----------------------------------------------------------| 
--12-13-12----12~---12--0-0-15-0-13-0-12-0-10-0-12-0-13-0-| 
-----------14---------------------------------------------| 
----------------------------------------------------------| 
----------------------------------------------------------| 
----------------------------------------------------------| 
----------------------------------------------------------| 
 
 
                                                              
---------------------------------------------------------20-| 
--12-13-12----12/-19--19------19-20-19----19----19-20-22----| 
-----------14-------------21-----------21-------------------| 
------------------------------------------------------------| 
------------------------------------------------------------| 
------------------------------------------------------------| 
------------------------------------------------------------| 
 
 
                                                                                  
--19-20-19----19----------------19-20-22----------------------------------------| 
-----------22----22-20-19-20-22----------19-20-19----19----------------19-20-22-| 
--------------------------------------------------21----21-19----19-21----------| 
--------------------------------------------------------------22----------------| 
--------------------------------------------------------------------------------| 
--------------------------------------------------------------------------------| 
--------------------------------------------------------------------------------| 
 
 
                                                                               
--------------------------------------------------17-19-20-17-19-20-19-20-22-| 
-----------------------------------------17-19-20----------------------------| 
--16-17-16----16----------------16-17-19-------------------------------------| 
-----------19----19-17-16-17-19----------------------------------------------| 
-----------------------------------------------------------------------------| 
-----------------------------------------------------------------------------| 
-----------------------------------------------------------------------------| 
 
 
                                                                                            
--24--------24/-----------|----------------------------|----------------------------------| 
--------------------------|----------------------------|----------------------------------| 
--------------------------|----------------------------|----------------------------------| 
--------------------------|----------------------------|----------------------------------| 
--------------------------|----------------------------|--3------3----3--3----3--3--3--3--| 
--------------------------|----------------------------|--3------3----3--3----3--3--3--3--| 
--------------------------|--2------2----2--2----2--0--|--1------1----1--1----1--1--1--1--| 
 
 
                                                                                 
---------------------|----------------------------|----------------------------| 
---------------------|-----------------5----5-----|----------------------------| 
---------------------|-----------------4----4-----|----------------------------| 
---------------------|--2------2-------2----2-----|--5------5----5--5----5-----| 
----------------2----|--2------2-------2----2-----|--4------4----4--4----4--x--| 
--2------3-----------|--0------0----0-------------|--2------2----2--2----2--x--| 
---------------------|-------------------------0--|--2------2----2--2----2--x--| 
 
 
                                                                         
----------------------------------|------------------------------------| 
----------------------------------|------------------------------------| 
----------------------------------|------------------------------------| 
----------------------------------|--7------7------7----5----4----5----| 
--3------3----3--3----3--3--3--3--|--7------7------7----5----4----5----| 
--3------3----3--3----3--3--3--3--|--5------5------5----3----2----3----| 
--1------1----1--1----1--1--1--1--|------------------------------------| 
 
 
                                                                                          
----------------------------|----------------------------|------------------------------| 
-----------------5----5-----|----------------------------|------------------------------| 
-----------------4----4-----|----------------------------|------------------------------| 
--2------2-------2----2-----|----------------------------|-----------------5------------| 
--2------2-------2----2-----|----------------------------|--3------3----3--3------------| 
--0------0----0----------4--|----------------------------|--3------3----3--3------------| 
----------------------------|--2------2----2--2----2--0--|--1------1----1--1------------| 
 
 
                                                                                 
---------------------|----------------------------|----------------------------| 
---------------------|-----------------5----5-----|----------------------------| 
---------------------|-----------------4----4-----|----------------------------| 
---------------------|--2------2-------2----2-----|--5------5----5--5----5-----| 
---------------------|--2------2-------2----2-----|--4------4----4--4----4--x--| 
--2------3------7----|--0------0----0-------------|--2------2----2--2----2--x--| 
---------------------|-------------------------0--|--2------2----2--2----2--x--| 
 
 
                                                                                   
------------------------------|---------------------|----------------------------| 
------------------------------|---------------------|-----------------5----5-----| 
------------------------------|---------------------|-----------------4----4-----| 
-----------------5------------|---------------------|--2------2-------2----2-----| 
--3------3----3--3------------|---------------------|--2------2-------2----2-----| 
--3------3----3--3------------|--5------3------2----|--0------0----0----------4--| 
--1------1----1--1------------|---------------------|----------------------------| 
 
 
                                                                                   
----------------------------|------------------------------|---------------------| 
----------------------------|------------------------------|---------------------| 
----------------------------|------------------------------|---------------------| 
----------------------------|-----------------5------------|---------------------| 
----------------------------|--3------3----3--3------------|---------------------| 
----------------------------|--3------3----3--3------------|--2------3------7----| 
--2------2----2--2----2--0--|--1------1----1--1------------|---------------------| 
 
 
                                                                                          
----------------------------|----------------------------|------------------------------| 
-----------------5----5-----|----------------------------|------------------------------| 
-----------------4----4-----|----------------------------|------------------------------| 
--2------2-------2----2-----|--5------5----5--5----5-----|-----------------5------------| 
--2------2-------2----2-----|--4------4----4--4----4--x--|--3------3----3--3------------| 
--0------0----0-------------|--2------2----2--2----2--x--|--3------3----3--3------------| 
-------------------------0--|--2------2----2--2----2--x--|--1------1----1--1------------| 
 
 
                                                                                                   
---------------------|---------------------|--------------------------|--------------------------| 
---------------------|---------------------|--------------------------|--------------------------| 
---------------------|---------------------|--------------------------|--------------------------| 
---------------------|---------------------|--------------------------|--------------------------| 
---------------------|---------------------|--------------------------|--------------------------| 
--5------3------2----|---------------------|--------2--2------2---2---|--------2--2------2---2---| 
---------------------|--5------3------2----|--1p-0--0--0------0---0---|--1p-0--0--0------0---0---| 
 
 
                                                                                                
--------------------------|--------------------------|----------------------------------------| 
--------------------------|--------------------------|----------------------------------------| 
--------------------------|--------------------------|----------------------------------------| 
--------------------------|--------------------------|----------------------------------------| 
--------------------------|--------------------------|----------------------------------------| 
--------2--2------2---2---|--------2--2------2---2---|------2-2------2--2------2-2------2--2--| 
--1p-0--0--0------0---0---|--1p-0--0--0------0---0---|--1p0-0-0----0-0--0--1p0-0-0----0-0--0--| 
 
 
                                                                             
----------------------------------------|----------------------------------| 
----------------------------------------|----------------------------------| 
----------------------------------------|----------------------------------| 
----------------------------------------|----------------------------------| 
----------------------------------------|----------------------------------| 
------2-2------2--2------2-2------2--2--|------4-2---5-2---4-2-------------| 
--1p0-0-0----0-0--0--1p0-0-0----0-0--0--|--0-2-----3-----3-----3-2-0-2-3-2-| 
 
 
                                                                       
----------------------------------|----------------------------------| 
----------------------------------|----------------------------------| 
----------------------------------|----------------------------------| 
----------------------------------|----------------------------------| 
----------------------------------|----------------------------------| 
------4-2---5-2---4-2-------------|------4-2---5-2---4-2-------------| 
--0-2-----3-----3-----3-2-0-2-3-2-|--0-2-----3-----3-----3-2-0-2-3-2-| 
 
 
                                                                                  
----------------------------------|----------------------|----------------------| 
----------------------------------|----------------------|----------------------| 
----------------------------------|----------------------|----------------------| 
----------------------------------|----------------------|----------------------| 
------------------4---------------|----------------------|----------------------| 
------4-2---5-2-----4-5-2-4-----2-|------2-2--------2-2--|------2-2--------2-2--| 
--0-2-----3-----3-----------3-2---|--1p0-0-0----1p0-0-0--|--1p0-0-0----1p0-0-0--| 
 
 
                                                                       
----------------------------------|----------------------------------| 
----------------------------------|----------------------------------| 
----------------------------------|----------------------------------| 
----------------------------------|----------------------------------| 
----------------------------------|------------------4---------------| 
------4-2---5-2---4-2-------------|------4-2---5-2-----4-5-2-4-----2-| 
--0-2-----3-----3-----3-2-0-2-3-2-|--0-2-----3-----3-----------3-2---| 
 
 
                                                                       
----------------------------------|----------------------------------| 
----------------------------------|----------------------------------| 
----------------------------------|----------------------------------| 
----------------------------------|----------------------------------| 
------4-2---5-2---4-2-------------|------4-2---5-2---4-2-------------| 
--0-2-----3-----3-----3-2-0-2-3-2-|--0-2-----3-----3-----3-2-0-2-3-2-| 
----------------------------------|----------------------------------| 
 
 
                                                                                                    
------------------------------------------------|-------------------------------------------------| 
------------------------------------------------|-------------------------------------------------| 
------------------------------------------------|-------------------------------------------------| 
------------------------------------------------|-------------------------16----------------------| 
-------16-14----17-14----16-14------------------|-------16-14----17-14-------16-17-14-16-------14-| 
--0-14-------15-------15-------15-14-0-14-15-14-|--0-14-------15-------15----------------15-14----| 
------------------------------------------------|-------------------------------------------------| 
 
 
                                                                                                 
------------------------------------------|----------------------------------------------------| 
------------------------------------------|----------------------------------------------------| 
------------------------------------------|----------------------------------------------------| 
------------------------------------------|----------------------------------------------------| 
------------------------------------------|----------------------------------------------------| 
--3-2-0-0-0-0-8-7-0-0-0-0-3-2-0-0-0-0-8-7-|--0-3-2-0-0-0-0-8-7-0-0-0-0-3-2-0-0-0-0-6-5-0-5-3-0-| 
------------------------------------------|----------------------------------------------------| 
 
 
                                                                                                 
------------------------------------------|----------------------------------------------------| 
------------------------------------------|----------------------------------------------------| 
------------------------------------------|----------------------------------------------------| 
------------------------------------------|----------------------------------------------------| 
------------------------------------------|----------------------------------------------------| 
--3-2-0-0-0-0-8-7-0-0-0-0-3-2-0-0-0-0-8-7-|--0-3-2-0-0-0-0-8-7-0-0-0-0-3-2-0-0-0-0-6-5-0-5-3-0-| 
------------------------------------------|----------------------------------------------------| 
 
 
                                                                             
--------------------------------|------------------------------------------| 
--------------------------------|------------------------------------------| 
--------------------------------|------------------------------------------| 
--------------------------------|------------------------------------------| 
--4-2---5--2---4--2-------------|------------------------------------------| 
------3------3------3-2-0-2-3-2-|--3-2-0-0-0-0-8-7-0-0-0-0-3-2-0-0-0-0-8-7-| 
--------------------------------|------------------------------------------| 
 
 
                                                                                                 
----------------------------------------------------|------------------------------------------| 
----------------------------------------------------|------------------------------------------| 
----------------------------------------------------|------------------------------------------| 
----------------------------------------------------|------------------------------------------| 
----------------------------------------------------|------------------------------------------| 
--0-3-2-0-0-0-0-8-7-0-0-0-0-3-2-0-0-0-0-6-5-0-5-3-0-|--3-2-0-0-0-0-8-7-0-0-0-0-3-2-0-0-0-0-8-7-| 
----------------------------------------------------|------------------------------------------| 
 
 
                                                                                       
----------------------------------------------------|--------------------------------| 
----------------------------------------------------|--------------------------------| 
----------------------------------------------------|--------------------------------| 
----------------------------------------------------|--------------------------------| 
----------------------------------------------------|--4-2---5--2---4--2-------------| 
--0-3-2-0-0-0-0-8-7-0-0-0-0-3-2-0-0-0-0-6-5-0-5-3-0-|------3------3------3-2-0-2-3-2-| 
----------------------------------------------------|--------------------------------| 
 
 
                                                                      
--------------------------------|-----------------------------------| 
--------------------------------|-----------------------------------| 
--------------------------------|-----------------------------------| 
--------------------------------|-----------------------------------| 
--4-2---5--2---4--2-------------|--7-9--9-7-9-9-10--10-4-5-5-7-7-10-| 
------3------3------3-2-0-2-3-2-|--5-7--7-5-7-7-8---8--2-3-3-5-5-8--| 
--------------------------------|-----------------------------------| 
 
 
                                                                        
----------------------------------|-----------------------------------| 
----------------------------------|-----------------------------------| 
----------------------------------|-----------------------------------| 
----------------------------------|-----------------------------------| 
--7-9--9-7-9-9-10--10-4-5-5-7-5-4-|--7-9--9-7-9-9-10--10-4-5-5-7-7-10-| 
--5-7--7-5-7-7-8---8--2-3-3-5-3-2-|--5-7--7-5-7-7-8---8--2-3-3-5-5-8--| 
----------------------------------|-----------------------------------| 
 
 
                                                                       
----------------------------------|----------------------------------| 
----------------------------------|----------------------------------| 
----------------------------------|----------------------------------| 
----------------------------------|----------------------------------| 
--7-9--9-7-9-9-10--10-4-5-5-7-5-4-|------4-2---5-2---4-2-------------| 
--5-7--7-5-7-7-8---8--2-3-3-5-3-2-|--0-2-----3-----3-----3-2-0-2-3-2-| 
----------------------------------|----------------------------------| 
 
 
                                                                                     
----------------------------------|------------------------------------------------| 
----------------------------------|------------------------------------------------| 
----------------------------------|------------------------------------------------| 
----------------------------------|------------------------------------------------| 
------4-2---5-2---4-2-------------|-------16-14----17-14----16-14------------------| 
--0-2-----3-----3-----3-2-0-2-3-2-|--0-14-------15-------15-------15-14-0-14-15-14-| 
----------------------- 

	  

No existe una video leccione para esta canción

request
LosAcordes
Buscar
auto avanzar rasgueos aumentar disminuir cambiar color esconder acordes gráficos
losacordes exhibir acordes losacordes youTube video losacordes ocultar tabs losacordes ir hacia arriba losacordes