Dream Theater

Início > Dream Thea... > acordes

Strange Daja Vu Tablatura

Dream Theater

Dificultad:ExpertoExperto

tuner correct add songbook print version text version salvar en e-mail
acordesukuleletablaturabajobateríaarmónicaflautacavacopiano Guitar Pro
acordes

Strange Daja Vu

	  
Tabed by Lee 
 
 
 
^     = hammer on/pull off 
~     = vibrato 
~~    = hard vibrato 
tr~~  = trill 
b     = bend/pre bend 
r     = release 
PM    = palm mute 
x     = mute  
/     = slide up  
\     = slide down 
p     = pitch/natural harmonic 
 
 
 
E=|---------------------------------|-------------------------------------| 
B=|---------------------------------|-------------------------------------| 
G=|-8-8-8-8-----8-8-8-8-----7-7-7---|---7-7-7-7---------------------------| 
D=|-6-6-6-6-----6-6-6-6-----6-6-6---|---6-6-6-6-------6-------7-----------| 
A=|-6-6-6-6-----6-6-6-6-----6-6-6---|---6-6-6-6---------5-------6---------| 
E=|-4-4-4-4-----4-4-4-4-----4-4-4---|---4-4-4-4---0-4-----4-5-----5-------| 
 
                                                     
-----------------------------|----------------------| 
-----------------------------|----------------------| 
--8-8-8-8---8-8-8-8---7-7-7--|----7-7-7-7-----------| 
--6-6-6-6---6-6-6-6---6-6-6--|----6-6-6-6-----------| 
--6-6-6-6---6-6-6-6---6-6-6--|----6-6-6-6-----------| 
--4-4-4-4---4-4-4-4---4-4-4--|----4-4-4-4-----------| 
                                                             
-----------------------------|-------------------------------| 
-----------------------------|-------------------------------| 
--8-8-8-8---8-8-8-8---7-7-7--|----7-7-7-7--------------------| 
--6-6-6-6---6-6-6-6---6-6-6--|----6-6-6-6------6-------7-----| 
--6-6-6-6---6-6-6-6---6-6-6--|----6-6-6-6--------5-------6---| 
--4-4-4-4---4-4-4-4---4-4-4--|----4-4-4-4--0-4-----4-5-----5-| 
                                                     
-----------------------------|----------------------| 
-----------------------------|----------------------| 
--5-5-5-5---5-5-5-5---4-4-4--|----4-4-4-4-----------| 
--3-3-3-3---3-3-3-3---3-3-3--|----3-3-3-3-----------| 
--3-3-3-3---3-3-3-3---3-3-3--|----3-3-3-3-----------| 
--1-1-1-1---1-1-1-1---1-1-1--|----1-1-1-1-----------| 
                                                              
-----------------------------|--------------------------------| 
-----------------------------|--------------------------------| 
--5-5-5-5---5-5-5-5---4-4-4--|----4-4-4-4---------------------| 
--3-3-3-3---3-3-3-3---3-3-3--|----3-3-3-3-------3-------4-----| 
--3-3-3-3---3-3-3-3---3-3-3--|----3-3-3-3---------2-------3---| 
--1-1-1-1---1-1-1-1---1-1-1--|----1-1-1-1---0-1-----1-2-----2-| 
      
 
-----------------------------|----------------------| 
-----------------------------|----------------------| 
--8-8-8-8---8-8-8-8---7-7-7--|----7-7-7-7-----------| 
--6-6-6-6---6-6-6-6---6-6-6--|----6-6-6-6-----------| 
--6-6-6-6---6-6-6-6---6-6-6--|----6-6-6-6-----------| 
--4-4-4-4---4-4-4-4---4-4-4--|----4-4-4-4-----------| 
                                                             
-----------------------------|-------------------------------| 
-----------------------------|-------------------------------| 
--8-8-8-8---8-8-8-8---7-7-7--|----7-7-7-7--------------------| 
--6-6-6-6---6-6-6-6---6-6-6--|----6-6-6-6------6-------7-----| 
--6-6-6-6---6-6-6-6---6-6-6--|----6-6-6-6--------5-------6---| 
--4-4-4-4---4-4-4-4---4-4-4--|----4-4-4-4--0-4-----4-5-----5-| 
                                                     
-----------------------------|----------------------| 
-----------------------------|----------------------| 
--5-5-5-5---5-5-5-5---4-4-4--|----4-4-4-4-----------| 
--3-3-3-3---3-3-3-3---3-3-3--|----3-3-3-3-----------| 
--3-3-3-3---3-3-3-3---3-3-3--|----3-3-3-3-----------| 
--1-1-1-1---1-1-1-1---1-1-1--|----1-1-1-1-----------| 
                                                              
-----------------------------|--------------------------------| 
-----------------------------|--------------------------------| 
--5-5-5-5---5-5-5-5---4-4-4--|----4-4-4-4---------------------| 
--3-3-3-3---3-3-3-3---3-3-3--|----3-3-3-3-------3-------4-----| 
--3-3-3-3---3-3-3-3---3-3-3--|----3-3-3-3---------2-------3---| 
--1-1-1-1---1-1-1-1---1-1-1--|----1-1-1-1---0-1-----1-2-----2-| 
 
                                               
-------------------------------------------------| 
-------------------------------------------------| 
-------------------------------------------------| 
-----------------------6--------4----------------| 
------------------------------------6-7-6-4------| 
--4-1-2--5--5---4~-------------------------------| 
                                                  
-------------------------------------------------| 
-------------------------------------------------| 
-------------------------------------------------| 
----------------------6---------4----------------| 
------------------------------------4-6-4-2------| 
--4-1-2--5--5--4~--------------------------------|    
                                          
-------------------------------------------------| 
-------------------------------------------------| 
-------------------------------------------------| 
-----------------------4--------2--------1-2-1---| 
-----------------------------------------------4-| 
--1-2-4-5--4-2~----------------------------------| 
                                                                    
-----------------------------------------|----------------------------| 
-----------------------------------------|----------------------------| 
-----------------------------------------|----------------------------| 
-----------------------4--------2--------|--------6-7-6---------------| 
--2-0------------------------------------|--------------9-6-7---------| 
------4--5--4-2--------------------------|--------------------7-------| 
                                                                     
-------------|----------------|----------------------| 
-------------|----------------|----------------------| 
--6-6--------|-8-----8--7--5--|--8----------10-7--8--| 
--4-4--------|-6-----6--6--6--|--6----------6--6--6--| 
-------------|----------------|----------------------| 
------/9\----|----------------|----------------------| 
                                                          
----------------|--------------------| 
----------------|--------------------| 
--5-----5--4--2-|--4------6-4-5------| 
--3-----3--3--3-|--3------3-3-3------| 
----------------|--------------------| 
----------------|--------------------| 
                                                                
----------------|--------------------| 
----------------|--------------------| 
--8----8--7--5--|-5^7^8------10-7--8-| 
--6----6--6--6--|-6----------6--6--6-| 
----------------|--------------------| 
----------------|--------------------| 
 
 
----------------|--------------------| 
----------------|--------------------| 
--5-----5--4--2-|--2^4^5------6-4-5--| 
--3-----3--3--3-|--3----------3-3-3--| 
----------------|--------------------| 
----------------|--------------------| 
                                                                 
                                                                             
---------------------------|---------------------------| 
---------------------------|---------------------------| 
--11---11---10----8--------|--11---11---10----8--------| 
--9----9----9-----9----9-9-|--9----9----9-----9----9-9-| 
---------------------------|---------------------------| 
---------------------------|---------------------------| 
                                                          
------------------------------|--------------------------| 
------------------------------|--------------------------| 
--13---13---11----10----------|--13---13---11----10------| 
--11---11---11----11----11-11-|--11---11---11----11------| 
------------------------------|--------------------------| 
------------------------------|--------------------------| 
                                                  
-------------------------------------------------| 
-------------------------------------------------| 
-------------------------------------------------| 
-----------------------6--------4----------------| 
------------------------------------6-7-6-4------| 
--4-1-2--5--5---4~-------------------------------| 
                                                  
-------------------------------------------------| 
-------------------------------------------------| 
-------------------------------------------------| 
----------------------6--------4-----------------| 
------------------------------------4-6-4-2------| 
--4-1-2--5--5--4~--------------------------------|    
                                          
-------------------------------------------------| 
-------------------------------------------------| 
-------------------------------------------------| 
-----------------------4--------2--------1-2-1---| 
-----------------------------------------------4-| 
--1-2-4-5--4-2~----------------------------------| 
                                                                    
-----------------------------------------|----------------------------| 
-----------------------------------------|----------------------------| 
-----------------------------------------|----------------------------| 
-----------------------4--------2--------|--------6-7-6---------------| 
--2-0------------------------------------|--------------9-6-7---------| 
------4--5--4-2--------------------------|--------------------7-------| 
                                                        
---------|------------|-----------|-------------------| 
---------|------------|-----------|-------------------| 
---------|------------|-----------|-------------------| 
--6------|------------|----9------|--14-13--11--9-----| 
--4------|--7---------|----7------|--12-11--9---7-----| 
---------|--5---------|-----------|-------------------| 
 
                                                                     
|---------------------------------|---------------------------------|---- 
|-------------0---------------0---|-------------0---------------0---|---- 
|---------2-----------2-----------|---------4-----------4-----------|---- 
|-----2-------------------2-------|-----4-------------------4-------|---- 
|---------------------------------|-2-------------------------------|---- 
|---------------------------------|---------------------------------|---- 
 
  
|---------------------------------|---------------------------------|---- 
|-------------0-------------------|-------------0-------------------|---- 
|---------2-----------------------|---------------------3-----------|---- 
|-----2---------------------------|---------4---------------4-------|---- 
|-0-------------------------------|-----4-----------------------4---|---- 
|---------------------0-------0---|-2-------------------------------|---- 
 
 
|---------------------------------|---------------------------------|---- 
|-------------0---------------0---|-------------0---------------0---|---- 
|---------2-----------2-----------|---------4-----------4-----------|---- 
|-----2-------------------2-------|-----4-------------------4-------|---- 
|-0-------------------------------|-2-------------------------------|---- 
|---------------------------------|---------------------------------|---- 
 
|-------------3-------------------|---------------------------------|---- 
|---------------------3-----------|-------------8-----------7-------|---- 
|---------5-------------------5---|---------7-----------------------|---- 
|-----5---------------------------|-----7---------------------------|---- 
|-3-------------------------------|-5-------------------------------|---- 
|---------------------------------|---------------------------------|---- 
 
 
---------|------------|---------------| 
---------|------------|---------------| 
--9------|--9---------|---------------| 
--9------|--9---------|---------------| 
--7------|--7---------|-------5pb-----| 
---------|------------|---------------| 
 
 
-------------|------------|------------------| 
-------------|------------|------------------| 
-------------|------------|------------------| 
-------------|------------|------------------| 
-7-5-7-7tr~~-|--5-7-5-7---|---5----7---------| 
-------------|------------|---3----5-----0---| 
 
 
-------------|------------|------------------| 
-------------|------------|------------------| 
-------------|------------|------------------| 
-------------|------------|------------------| 
-7-5-7-7tr~~-|--5-7-5-7---|---7----5---------| 
-------------|------------|---5----3-----0---| 
 
 
-------------|------------|----------------|------------| 
-------------|------------|----------------|------------| 
-------------|------------|----------------|------------| 
-------------|------------|----------------|------------| 
-7-5-7-7tr~~-|--5-7-5-7---|---0/1/2/3/4/5--|-7-5-7-7tr~~| 
-------------|------------|----------------|-0----------| 
                              (---tr~~---) 
 
-------------|--------------| 
-------------|--------------| 
-------------|--------------| 
-------------|--------------| 
-------------|-------5pb----| 
-3-4-5-0-----|--------------| 
 
-------------|------------|------------------| 
-------------|------------|------------------| 
-------------|------------|------------------| 
-------------|------------|------------------| 
-7-5-7-7tr~~-|--5-7-5-7---|---5----7---------| 
-------------|------------|---3----5-----0---| 
 
 
-------------|------------|------------------| 
-------------|------------|------------------| 
-------------|------------|------------------| 
-------------|------------|------------------| 
-7-5-7-7tr~~-|--5-7-5-7---|---5----7---------| 
-------------|------------|---3----5-----0---| 
 
-------------|------------|------------------| 
-------------|------------|------------------| 
-------------|------------|------------------| 
-------------|------------|------------------| 
-7-5-7-7tr~~-|--5-7-5-7---|---5----7---------| 
-------------|------------|---3----5-----0---| 
 
-------------|------------|------------------| 
-------------|------------|------------------| 
-------------|------------|------------------| 
-------------|------------|------------------| 
-7-5-7-7tr~~-|--5-7-5-7---|---5----7-----12--| 
-------------|------------|---3----5-----10--| 
 
-------------|------------|------------------| 
-------------|------------|------------------| 
-------------|------------|------------------| 
-------------|------------|------------------| 
-7-5-7-7tr~~-|--5-7-5-7---|---5----7-----12--| 
-------------|------------|---3----5-----10--| 
 
-------------|------------|------------------| 
-------------|------------|------------------| 
-------------|------------|------------------| 
-5-4-5-5tr~~-|--5-4-5-4---|------------------| 
-------------|------------|---5----7-----12--| 
-------------|------------|---3----5-----10--| 
 
-------------|------------| 
-------------|------------| 
-------------|------------| 
-5-4-5-5tr~~-|--5-4-5-4---| 
-------------|------------| 
-------------|------------| 
 
----------|-----------------|-------------|-------------|-------------------| 
----------|-----------------|-------------|-------------|-------------------| 
----------|-----------------|-------------|-------------|-------------------| 
----------|------------2----|---------2---|---------2---|-----2^3-3tr~~-----| 
-------4--|--------------4--|-------2---4-|-----2-----4-|---------------2-3-| 
-0-2-3----|-0-2-3-4-3-------|-0-2-3-------|-0-3---3-----|-0-3---------------| 
 
 
-----------------|-------------|-------------|------------------------| 
-----------------|-------------|-------------|------------------------| 
-----------------|-------------|-------------|------------------------| 
------------2----|---------2---|---------2---|-----2^3-3tr~~----------| 
--------------4--|-------2---4-|-----2-----4-|---------------2--------| 
-0-2-3-4-3-------|-0-2-3-------|-0-3---3-----|-0-3--------------3-----| 
 
 
-------------|--------------------| 
-------------|--------------------| 
-------------|--------------------| 
-4-6-6tr~~---|--------------------| 
-------------|-----4-6-4-2--------| 
-------------|-4-7----------2-4---| 
 
-------------|--------------------| 
-------------|--------------------| 
-------------|--------------------| 
-4-6-6tr~~---|--------------------| 
-------------|-----4-6-4-2--------| 
-------------|-4-7----------2-4-4-| 
 
-------------|--------------------| 
-------------|--------------------| 
-------------|--------------------| 
-4-6-6tr~~---|--------------------| 
-------------|-----4-6-4-2--------| 
-------------|-4-7----------2-4---| 
 
-------------|---------------------| 
-------------|---------------------| 
-------------|---------------------| 
-4-6-6tr~~---|---------------------| 
-------------|-----4-6-4--------2-4| 
-------------|-4-7-------2--4-2----| 
 
------|----------|----------------------------| 
------|----------|----------------------------| 
------|----------|-------7--------------------| 
------|----------|-4-----7----7-----12-11-9-7-| 
------|--2-------|-4-----5----7-----12-11-9-7-| 
-5----|----------|-2----------5-----10-9--7-5-| 
 
------------|-----------|---------|------------|-----------| 
------------|-----------|---------|------------|-----------| 
------------|--7--------|-6-------|-4----------|-1---------| 
-2----------|--7--------|-6-------|-4----------|-2---------| 
-2----------|--5--------|-4-------|-2----------|-2---------| 
-4----------|-----------|---------|------------|-0---------| 
 
 
 
|---------------------------------|---------------------------------|---- 
|-------------0---------------0---|-------------0---------------0---|---- 
|---------2-----------2-----------|---------4-----------4-----------|---- 
|-----2-------------------2-------|-----4-------------------4-------|---- 
|---------------------------------|-2-------------------------------|---- 
|---------------------------------|---------------------------------|---- 
 
  
|---------------------------------|---------------------------------|---- 
|-------------0-------------------|-------------0-------------------|---- 
|---------2-----------------------|---------------------3-----------|---- 
|-----2---------------------------|---------4---------------4-------|---- 
|-0-------------------------------|-----4-----------------------4---|---- 
|---------------------0-------0---|-2-------------------------------|---- 
 
 
|---------------------------------|---------------------------------|---- 
|-------------0---------------0---|-------------0---------------0---|---- 
|---------2-----------2-----------|---------4-----------4-----------|---- 
|-----2-------------------2-------|-----4-------------------4-------|---- 
|-0-------------------------------|-2-------------------------------|---- 
|---------------------------------|---------------------------------|---- 
 
|-------------3-------------------|---------------------------------|---- 
|---------------------3-----------|-------------8-----------7-------|---- 
|---------5-------------------5---|---------7-----------------------|---- 
|-----5---------------------------|-----7---------------------------|---- 
|-3-------------------------------|-5-------------------------------|---- 
|---------------------------------|---------------------------------|---- 
 
 
 
|---------------------------------|---------------------------------|---- 
|-------------0---------------0---|-------------0---------------0---|---- 
|---------2-----------2-----------|---------4-----------4-----------|---- 
|-----2-------------------2-------|-----4-------------------4-------|---- 
|---------------------------------|-2-------------------------------|---- 
|---------------------------------|---------------------------------|---- 
 
  
|---------------------------------|---------------------------------|---- 
|-------------0-------------------|-------------0-------------------|---- 
|---------2-----------------------|---------------------3-----------|---- 
|-----2---------------------------|---------4---------------4-------|---- 
|-0-------------------------------|-----4-----------------------4---|---- 
|---------------------0-------0---|-2-------------------------------|---- 
 
 
|---------------------------------|---------------------------------|---- 
|-------------0---------------0---|-------------0---------------0---|---- 
|---------2-----------2-----------|---------4-----------4-----------|---- 
|-----2-------------------2-------|-----4-------------------4-------|---- 
|-0-------------------------------|-2-------------------------------|---- 
|---------------------------------|---------------------------------|---- 
 
|------------------|---------------|-----------------------------------| 
|------------------|---------------|-----------------------------------| 
|------------------|---------------|-----------------------------------| 
|----------9-------|--/9---7--6----|---------10------------------------| 
|-------10---------|---------------|------11---------------------------| 
|----10------------|---------------|---11------------------------------| 
|--8---------------|---------------|-9---------------------------------| 
 
-----------------------|--3------------ 
-----------------------|--3------------ 
-----------------------|--4------------ 
-----------------------|--5------------ 
-----------------------|--5------------ 
0-1-3------------------|--3------------ 
 

	  

No existe una video leccione para esta canción

request
LosAcordes
Buscar
auto avanzar rasgueos aumentar disminuir cambiar color esconder acordes gráficos
losacordes exhibir acordes losacordes youTube video losacordes ocultar tabs losacordes ir hacia arriba losacordes