Dream Theater

Início > Dream Thea... > acordes

One Last Time Tablatura

Dream Theater

Dificultad:Ningún gradoNingún grado

tuner correct add songbook print version text version salvar en e-mail
acordesukuleletablaturabaixobateriaarmónicaflautacavacopiano Guitar Pro
acordes

One Last Time

	  
    *C#m      B         G#m      A     
     Gtr.1 (Elec.Gtr.) 
E||-------------------|------------------|  
B||-------------------|------------------|  
G||4-6----------------|(6)---------------|  
D||4-6----------------|(6)---------------|  
A||--4----------------|(4)---------------|  
E||-------------------|------------------| 
     *Chords by Piano & Bass Gtr.  
  
  
  
   C#m  B    G#m  A    C#m  B    G#m  A    C#m  B    G#m  A     
   Gtr.1 
E|---------|---------|---------|---------|---------|---------|  
B|---------|---------|---------|---------|---------|---------|  
G|---------|---------|---------|---------|---------|---------| 
D|---------|---------|---------|---------|---------|---------| 
A|---------|---------|---------|---------|---------|---------| 
E|---------|---------|---------|---------|---------|---------| 
  
  
  
  
   C#m        B/C#          G#m/C#     A/C# 
   Gtr.1 
   P.M. throughout 
E|------------------------|------------------------|  
B|------------------------|------------------------|  
G|------------------------|------------------------|  
D|------------------------|------------------------|  
A|-4----4-----4-4----4----|-4----4-----4-4----4----|   
E|----------4------4------|----------4------4------| 
  
  
  
  
   C#m        B/C#          G#m/C#     A/C# 
   Gtr.1 
E|------------------------|------------------------|  
B|------------------------|------------------------|  
G|------------------------|------------------------|  
D|------------------------|------------------------|  
A|-4----4-----4-4----4----|-4----4-----4-4----4----|   
E|----------4------4------|----------4------4------| 
  
  
  
  
   C#m             B/C#              G#m/C#          A/C# 
   Gtr.1 
E|---------------------------------|---------------------------------|  
B|-------4-5^4---4---------5^4-----|---------5^4---4---------7^4-----|  
G|-----6-------6---------6-----6-4-|-------6-----6---------6-----4-6-|  
D|---6-------------6---6-----------|-6---6-----------6---6-----------|  
A|-4-----------------4-------------|---4---------------4-------------|  
E|---------------------------------|---------------------------------| 
  
  
  
  
   C#m             B/C#              G#m/C#          A/C# 
   Gtr.1 
                                                               __3__ 
E|---------------------------------|-------------------------------------|  
B|-------4-5^4---4---------5^4-----|---------5^4---4---------5-4^5^4-----|  
G|-----6-------6---------6-----6-4-|-------6-----6---------6---------6^4-|  
D|---6-------------6---6-----------|-6---6-----------6---6---------------|  
A|-4-----------------4-------------|---4---------------4-----------------|  
E|---------------------------------|-------------------------------------| 
  
  
  
  
   C#m           B               G#m           A 
   Gtr.2 (Elec.Gtr. w/chorus effect) 
E|----------0-------------0----|----------0-------------0----|  
B|-------0-----0-------0-----0-|-------0-----0-------0-----0-|  
G|-----6-------------4---------|-----4-------------2---------|  
D|---6-------------4-----------|---4-------------2-----------|  
A|-4-------------2-------------|---------------0-------------|  
E|-----------------------------|-4---------------------------| 
  
  
  
  
   C#m           B               G#m           A 
   Gtr.2 
E|----------0-------------0----|----------0-------------0----|  
B|-------0-----0-------0-----0-|-------0-----0-------0-----0-|  
G|-----6-------------4---------|-----4-------------2---------|  
D|---6-------------4-----------|---4-------------2-----------|  
A|-4-------------2-------------|---------------0-------------|  
E|-----------------------------|-4---------------------------| 
  
  
  
  
   C#m      B            G#m         A 
   Gtr.3 (Elec.Gtr. w/dist.) 
                         ~~~~~~~ 
E|---------------------|------------------------|  
B|---------------------|------------------------|  
G|-6-------------------|------------------------|  
D|-6-------------------|-----------------6---4--|  
A|-4--------2---4---6--|-----------------7---6--|  
E|---------------------|-4-------2-4-5----------| 
  
  
  
  
   C#m         B/D#         G#m           A 
   Gtr.3 
               ~~~                ~~~ 
E|------------------------|-------------------------|  
B|------------------------|-------------------------|  
G|-6----------------------|-------------------------|  
D|-6----------------------|/6-----------------------|  
A|-4-------6^7-6---7---9--|-----6-------------------|  
E|------------------------|-------4---2-4-5---4---0-| 
  
  
  
  
    F#11 
    Gtr.3 
               w/trem.bar 
               ~~~~~~~ 
E|-----0--------------|-----0------------------|  
B|---------0----------|---------0--------------|  
G|7------------3------|4------------3----------|  
D|8-4-----------------|4-4--------------4---2--|  
A|--4-----------------|--4---------------------|  
E|--2-----------------|--2---------------------| 
  
  
  
  
  
    Gtr.3 
E|-----0--------------|-----0------------------|  
B|---------0----------|---------0--------------|  
G|7------------3------|4------------3----------|  
D|8-4-----------------|4-4--------------4---2--|  
A|--4-----------------|--4---------------------|  
E|--2-----------------|--2---------------------| 
  
  
  
  
  
   Gtr.4 
   1          1/2          ~~~~~~~~~~~~~~~~~~~   ___3___ 
E|------------------------------|------------------------|  
B|17b--r------------------------|---------------------14-|  
G|------------15b--r-\11--11----|3-(11)------------15----|  
D|--------16--------------------|4--------------16-------|  
A|------------------------------|------------------------|  
E|------------------------------|------------------------| 
  
  
  
  
  
     Gtr.4 
     1          1/2          1             *tr~~~~~  tr~~~~  tr~~~~~ ~~~~~ 
E|---------------------------------|--------------------------------14----|  
B|--17b--r------------------17b----|(17b)-17^(21)--17^(22)-17^(24)--------|  
G|4-------------15b--r-------------|--------------------------------------|  
D|4---------16----------16---------|--------------------------------------|  
A|---------------------------------|--------------------------------------|  
E|---------------------------------|--------------------------------------| 
                                           *Hold bend while trilling  
                                            w/right hand index finger. 
  
  
  
  
   Gtr.4 
   1          1/2             1/2~~~~~~~~~~~  
E|---------------------------------|--------------14^18^14-------------------|  
B|17b--r------------------16--16b--|--(16b)-14-17----------17-14-------------|  
G|------------15b--r---------------|3----------------------------16-15-------|  
D|--------16----------16-----------|4----------------------------------16-14-|  
A|---------------------------------|-----------------------------------------|  
E|---------------------------------|-----------------------------------------| 
  
  
  
  
  
     Gtr.4 
     1          1/2         1/4          1          1    ___3___  1      1__3___        ~~~ 
E|-------------------------------------|-----14---------14-----------14--------------------|  
B|--17b--r-----------------------------|--------14-17b-----17^14---------------------------|  
G|4-------------15b--r------14b--------|16b----------------------16b----16b-r^14-16-14-----|  
D|4---------16----------16-------16-14-|-----------------------------------------------16--|  
A|-------------------------------------|---------------------------------------------------|  
E|-------------------------------------|---------------------------------------------------| 
  
  
  
  
   Asus2                  Bsus 
   Gtr.2 
E|----------------------|----------------------|  
B|----------0-----------|----------0-----------|  
G|-2-----2-------2------|-4-----4-------4------|  
D|-2---2----------------|-4---4----------------|  
A|-0--------------------|-2--------------------|  
E|----------------------|----------------------| 
  
  
  
  
   Asus2                  F#11 
   Gtr.2 
E|----------------------|-----------------------|  
B|----------0-----------|----------0------------|  
G|-2-----2--------------|---------------3-------|  
D|-2---2----------------|-------4------------4--|  
A|-0--------------------|-----4-----------------|  
E|---------------0------|-2---------------------| 
  
  
  
  
   Asus2                  Bsus 
   Gtr.2 
E|----------------------|----------------------|  
B|----------0-----------|----------0-----------|  
G|-2-----2-------2------|-4-----4-------4------|  
D|-2---2----------------|-4---4----------------|  
A|-0--------------------|-2--------------------|  
E|----------------------|----------------------| 
  
  
  
  
   Csus2                 D      Dsus   D 
   Gtr.2 
E|--------3------------|--------3------2----|  
B|-------------3----x--|-3------3------3----|  
G|-5----------------x--|-2-------------2----|  
D|-5----------------x--|-0-------------0----|  
A|-3-------------------|--------------------|  
E|---------------------|--------------------| 
  
  
  
  
   Asus2                  Bsus 
   Gtr.2 
E|----------------------|----------------------|  
B|----------0-----------|----------0-----------|  
G|-2-----2-------2------|-4-----4-------4------|  
D|-2---2----------------|-4---4----------------|  
A|-0--------------------|-2--------------------|  
E|----------------------|----------------------| 
  
  
  
  
    F#m      E          D 
    Gtr.2 
E|--------------------|------------------|  
B|--------------------|------------------|  
G|/11--------9--------|-7----------------|  
D|/11--------9--------|-7----------------|  
A|-/9--------7--------|-5----------------|  
E|--------------------|------------------| 
  
  
  
  
   E                             G 
   Gtr.2 
E|-----------------------------|-----------3-3-3----------|  
B|-----------------------------|-----------3-3-3----------|  
G|-----------------------------|-----------0-0-0----------|  
D|-2---------------------------|-----------0-0-0----------|  
A|-2---------------------------|--------------------------|  
E|-0---------------------------|-3------------------------| 
 | Gtr.4 
 |               ___3__                ~~~~~~~~~~~~~ 
E|-----------------------------|--------------------------|  
B|--------9--10--9^10^9--------|12/14-15------------14^15-|  
G|----------------------11--9--|--------------------------|  
D|-----------------------------|--------------------------|  
A|-----------------------------|--------------------------|  
E|-----------------------------|--------------------------| 
  
  
  
  
   A                               Bm 
   Gtr.2 
                                                          __3__ 
E|---------------5-5-5-----------|------------------------------|  
B|---------------5-5-5-----------|------------------------------|  
G|-2-------------2-2-2-----------|---------------4-4-4----------|  
D|-2-------------2-2-2-----------|-4-------------4-4-4----------|  
A|-0-----------------------------|-2-------------2-2-2----2-1-0-|  
E|-------------------------------|------------------------------| 
 | Gtr.4 
 | ~~~~        1                              1/2~~~~~~~~~ 
E|-------------------------------|------------------------------|  
B|14---15-----15b------r---15^14-|12---14-----14b---------14^15-|  
G|---------14--------------------|---------11-------------------|  
D|-------------------------------|------------------------------|  
A|-------------------------------|------------------------------|  
E|-------------------------------|------------------------------| 
  
  
  
  
   G#m7(b5)                             F               G/F 
   Gtr.2 
   ~~~~~~~~~              ~~~~~ __3__ 
E|------------------------------------|-----------------------------|  
B|------------------------------------|-----------------------------|  
G|------------------------------------|-----------------0-----------|  
D|------------------------------------|-----------------3-----------|  
A|-4----------------6--6--6-----------|-----------------------------|  
E|-----------4------------------4-3-2-|-1----1----------------1--1--| 
 | Gtr.4 
 |             1_ _ _ _ _ _~~~~~             __3__           __3__          
E|------------------------------------|-----------------------------|  
B|14---15-----15b--15-15-15-----13^12-|13-----12-13-13^12-----13-15-|  
G|---------13-------------------------|-----------------------------|  
D|------------------------------------|-----------------------------|  
A|------------------------------------|-----------------------------|  
E|------------------------------------|-----------------------------| 
  
  
  
  
   Ab              Bb/Ab           Cm 
   Gtr.2 
E|-------------------------------|------------------------|  
B|-------------------------------|------------------------|  
G|-----------------3-------------|-5----------------------|  
D|-----------------3-------------|-5----------------------|  
A|-------------------------------|-3----------------------|  
E|-4----4----4----------4--------|------------------------| 
 | Gtr.4 
 |1/2~~~~~~~       ~~~~~~~~        ~~~~~       ~~~~~ 
E|-------------------------------|------------------------|  
B|15b-------15^16-18-------16^15-|16----------15----------| 
G|-------------------------------|------------------------|  
D|-------------------------------|------17----------17----|  
A|-------------------------------|------------------------|  
E|-------------------------------|------------------------| 
  
  
  
  
   Eb/Bb                    Fm 
   Gtr.2 
E|------------------------|------------------------|  
B|------------------------|------------------------|  
G|------------------------|10----------------------|  
D|------------------------|10----------------------|  
A|-1----------------------|-8----------------------|  
E|------------------------|------------------------| 
 | Gtr.4 
 | ~~~~~       ~~~~~        ~~~~~       ~~~~~ 
E|------------------------|16----------15----------|  
B|16----------15----------|------------------------|  
G|------------------------|------17----------17----|  
D|------17----------17----|------------------------|  
A|------------------------|------------------------|  
E|------------------------|------------------------| 
  
  
  
  
   Ab/Eb                    Dm7(b5) 
   Gtr.2 
E|------------------------|------------------------|  
B|------------------------|------------------------|  
G|------------------------|------------------------|  
D|------------------------|------------------------|  
A|-6----------------------|-5----------------------|  
E|------------------------|------------------------| 
 | Gtr.4 
 | ~~~~~       ~~~~~        ~~~~~       ~~~~~ 
E|16----------15----------|16----------15----------|  
B|------------------------|------------------------|  
G|------17----------17----|------17----------17----|  
D|------------------------|------------------------|  
A|------------------------|------------------------|  
E|------------------------|------------------------| 
  
  
  
  
   Db                       Cm 
   Gtr.2 
E|------------------------|------------------|  
B|------------------------|------------------|  
G|------------------------|-5----------------|  
D|------------------------|-5----------------|  
A|-4----------------------|-3----------------|  
E|------------------------|------------------| 
 | Gtr.4 
E|16----15----------------|------------------|  
B|------------18----16--\-|13----------------|  
G|------------------------|------------------|  
D|------------------------|------------------|  
A|------------------------|------------------|  
E|------------------------|------------------| 
  
  
  
  
  
   Piano 
E|--------|--------|--------|--------||  
B|--------|--------|--------|--------||  
G|--------|--------|--------|--------||  
D|--------|--------|--------|--------||  
A|--------|--------|--------|--------||  
E|--------|--------|--------|--------||
	  

No existe una video leccione para esta canción

request
Aumentar uno tonoAumentar uno tono
Aumentar uno semi-tonoAumentar uno semi-tono
Disminuir uno semi-tonoDisminuir uno semi-tono
Disminuir uno tonoDisminuir uno semi-tono
LosAcordes
Buscar
auto avanzar rasgueos aumentar disminuir cambiar color esconder acordes gráficos
losacordes exhibir acordes losacordes youTube video losacordes ocultar tabs losacordes ir hacia arriba losacordes