Dream Theater

Início > Dream Thea... > acordes

Odyssey Tablatura

Dream Theater

Dificultad:Ningún gradoNingún grado

ubirbomfim

tuner correct add songbook print version text version salvar en e-mail
acordesukuleletablaturabajobateríaarmónicaflautacavacopiano Guitar Pro
acordes

Odyssey

	  
7/16                6/16               5/16            4/16          7/16   
e|-----------------|-----------------|----------------|-------------|-----------| 
B|-----------------|-----------------|-------10-12-10-|---10-12-13b-|-(15)------| 
G|-----------------|---------9-11-12-|-10-12----------|-12----------|-----------| 
D|--------7-9-7----|-9-11-12---------|----------------|-------------|-----------| 
A|-7-9-10-------10-|-----------------|----------------|-------------|-----------| 
E|-----------------|-----------------|----------------|-------------|-----------| 



  7+6/16  
e|------------|------------|---------------------------|---------------------------| 
B|------------|------------|---------------------------|---------------------------| 
G|------------|------------|-------------------------2-|---------------------------| 
D|------------|-2-----3----|-------2-4-2-------2-4-5---|-------------------------3-| 
A|-2-----3----|-0-----1----|-2-3-5-------5-3-5---------|-------3-5-3-------3-5-7---| 
E|-0-----1----|-0-----1----|---------------------------|-4-5-7-------7-5-7---------| 


e|------------|---------------------------|---------------------------|------------| 
B|------------|---------------------------|---------------------------|------------| 
G|------------|---------------------------|-------------------------3-|------------| 
D|-7----------|---------------------------|-------3-5-3-------3-5-7---|-4-----5----| 
A|-5-----3----|-------0-2-0-------0-2-3-5-|-4-5-7-------7-5-7---------|-2-----3----| 
E|-------1----|-0-1-3-------3-1-3---------|---------------------------|------------| 


e|-----------|---------------------------|---------------------------|---------------------------| 
B|-----------|---------------------------|---------------------------|---------------------------| 
G|-----------|---------------------------|-------------------------5-|-------------------------4-| 
D|-----------|-------------------------2-|-------5-7-5-------5-7-9---|-------4-6-4-------4-6-7---| 
A|-2----3----|-------2-4-2-------2-4-5---|-6-7-9-------9-7-9---------|-4-5-7-------7-5-7---------| 
E|-0----1----|-2-3-5-------5-3-5---------|---------------------------|---------------------------| 


e|---------------------------|---------------------------|---------------------------| 
B|---------------------------|---------------------------|---------------------------| 
G|---------------------------|-------------------------9-|---------------------------| 
D|-------------------------5-|-----------------767-------|-------2-4-2---------4-5-7-| 
A|-------5-7-5-------5-7-9---|-------4-6-4---------6-7---|-2-4-6-------6-4-567-------| 
E|-5-7-9-------9-7-9---------|-4-5-7-------7-5-----------|---------------------------| 


e|---------------------------|----------------------------|----------------------------| 
B|-------------------------7-|----------------------------|----------------------------| 
G|-----------------434-------|--------------------------6-|----------------------------| 
D|-------1-3-1---------3-4---|--------6-8-6-5----56-8-9---|-----------------9-10---7-6-| 
A|-1-2-4-------4-2-----------|-6-8-10---------7-9---------|----------------------------| 
E|---------------------------|----------------------------|---7-6-7---7-8--------------| 


e|--------------------------------|---------------------------|-------------------------------| 
B|--------------------------------|---------------------------|-------------------------------| 
G|--------------------------------|---------------------------|-------------------------------| 
D|-------------------9-10---10-12-|---------------------------|-------------------------------| 
A|---10---------------------------|---7-7-7---8-8---7-7---8-8-|---9-9-9---10-10---9-9---10-10-| 
E|------7-8---8-10----------------|---------------------------|-------------------------------| 



e|------------------------------------------------------------------| 
B|-14-12-------15-12-------14-12------------------------------------| 
G|-------13-11-------13-11-------13-11------6-4-----7-4-----6-4-----| 
D|-------------------------------------14-------6-4-----6-4-----6-4-| 
A|------------------------------------------------------------------| 
E|------------------------------------------------------------------| 


e|-----------------------------------------------------|-------------|-------------------| 
B|-----------------------------------------------------|-3-----------|-------------------| 
G|-----------------------------------------------------|-2-----------|-4-----------------| 
D|-----------------------------------------------------|-0-----------|-2-----------------| 
A|-4-2-----5-2-----4-2---------4-2-----5-2-----4-2-----|-0-----------|-2-----------------| 
E|-----4-2-----4-2-----4-2-0-2-----4-2-----4-2-----4-2-|-------------|-0-----------------| 



4/4 (Vln. Solo) 
e|------------0-----|-------0-------0-|------------0-----|-------0-------0-| 
B|------0-------0---|-0-------0---0---|------0-------0---|-0-------0---0---| 
G|------------------|-----------------|------------------|-----------------| 
D|--------6---------|---6-------------|--------5---------|---5-------------| 
A|-4--------4-----4-|-----4-----5-----|-3--------3-----3-|-----3-----5-----| 
E|------------------|-----------------|------------------|-----------------| 


e|------------0-----|-------0-------0-|------------0-----|-------0-------0-| 
B|------0-------0---|-0-------0---0---|------0-------0---|-0-------0---0---| 
G|------------------|-----------------|------------------|-----------------| 
D|--------6---------|---6-------------|--------5---------|---5-------------| 
A|-4--------4-----4-|-----4-----5-----|-3--------3-----3-|-----3-----4-----| 
E|------------------|-----------------|------------------|-----------------| 


e|------------0-----|-------0-------0-|------------0-----|-------0-------0-| 
B|------0-------0---|-0-------0---0---|------0-------0---|-0-------0---0---| 
G|--------2---------|---2-------------|--------1---------|---2-------------| 
D|------------------|-----------------|------------------|-----------------| 
A|-0--------0-----0-|-----0-----2-----|------------------|-----------2-----| 
E|------------------|-----------------|-0--------0-----0-|-----0-----------| 


e|-----------|----------|-----------|----------|-----------|----------|-----------|----------| 
B|-----------|----------|-----------|----------|-----------|----------|-----------|----------| 
G|-----------|----------|-----------|----------|-----------|----------|-----------|----------| 
D|-----------|----------|-----------|----------|-----------|----------|-----------|----------| 
A|-4---------|-------5--|-3---------|-------5--|-4---------|-------5--|-3---------|-------4--| 
E|-----------|----------|-----------|----------|-----------|----------|-----------|----------| 


e|-----------|----------|-----------|----------|-----------|----------| 
B|-----------|----------|-----------|----------|-----------|----------| 
G|-----------|----------|-----------|----------|-----------|----------| 
D|-----------|----------|-----------|----------|-----------|----------| 
A|-0---------|-------2--|-----------|-------2--|-----------|----------| 
E|-----------|----------|-0---------|----------|-0---------|----------| 



e|-7--7--9--7---9-|-7--8--10-----11-|-8--6--6--4---|-4-----2-----2-|-4--4--7--7--9--9--14-12-| 
B|-8--8-10--8--10-|-8--9--11-----13-|-8-----6------|-4--5--2-----3-|----5-----7-----10----12-| 
G|-7--7--9--7---9-|-7--8--10-----12-|-8-----6------|-4--6--2-----4-|----6-----7-----9-----12-| 
D|----------------|-----------------|--------------|----6----------|-------------------------| 
A|----------------|-----------------|--------------|---------------|-------------------------| 
E|----------------|-----------------|--------------|---------------|-------------------------| 

                  4/4 + 7/8 
e|---12---12-----|--------------------|---------------------|---------------------| 
B|---12---12----.|-5--7--9--10--12-14-|-5-----5-6-5-6-5-6-5-|-7--9--10--12--14-15-| 
G|---14---13-----|-6--7--9--11--13-14-|-6-----6-7-6-7-6-7-6-|-7--9--11--13--14-16-| 
D|--------------.|--------------------|---------------------|---------------------| 
A|---------------|--------------------|---------------------|---------------------| 
E|---------------|--------------------|---------------------|---------------------| 


e|-----------------------------|----------------14-12-|-----------------------------| 
B|-12-----12-13-12-13-12-13-12-|-12-14--15--14--12-12-|-12-----12-14-12-14-12-14-12-| 
G|-13-----13-14-13-14-13-14-13-|-9--11--12--11--------|-12-----12-14-12-14-12-14-12-| 
D|-----------------------------|----------------------|-----------------------------| 
A|-----------------------------|----------------------|-----------------------------| 
E|-----------------------------|----------------------|-----------------------------| 


e|-7-7-7-7-7-7-7-7-7-7-9-10-|--------------------------|--------------------|--------------------| 
B|-7-----5-------5-----7--8-|-14-----10-10-10-10-10-10-|-5--7--9--10--12-14-|-5----5-6-5-6-5-6-5-| 
G|-4---------7--------------|-11-----10-10-10-10-10-10-|-6--7--9--11--13-14-|-6----6-7-6-7-6-7-6-| 
D|--------------------------|--------------------------|--------------------|--------------------| 
A|--------------------------|--------------------------|--------------------|--------------------| 
E|--------------------------|--------------------------|--------------------|--------------------| 


e|---------------------|-------------------------|-----------------14-12-|-----------------------| 
B|-7--9--10--12--14-15-|-12-----14-14---12-12-12-|-12--14--15--14--10-10-|-12----9--9--9--9--9---| 
G|-7--9--11--13--14-16-|-13-----11-11---11-11-11-|-12--14--11------------|-9-----9--9--9--9--9---| 
D|---------------------|-------------------------|-----------------------|-------11-11-11-11-11--| 
A|---------------------|-------------------------|-----------------------|-----------------------| 
E|---------------------|-------------------------|-----------------------|-----------------------| 


e|---------------------||---------| 
B|-10--12--12--10--8-7-||---------| 
G|-9-----------7---7-7-||-9-------| 
D|---------------------||-7-------| 
A|---------------------||-0-------| 
E|---------------------||---------| 


Riff.1       4/4 
e|---------|-----------------|-----------------|-----------------|-----------------| 
B|---------|-----------------|-----------------|-----------------|-----------------| 
G|---------|-----------------|-----------------|-----------------|-----------------| 
D|---------|-----5-3-5-------|-5-3-5-----------|-----5-3-5-------|-5-3-5-----------| 
A|---------|-----------------|-----------------|-----------------|-----------------| 
E|-1---1---|-3-----------3---|---------1---1---|-3-----------3---|---------1---1---| 


e|-----------------|-----------------|-----------------|-----------------|-----------------------| 
B|-----------------|-----------------|-----------------|-----------------|-----------------------| 
G|-----------------|-----------------|-----------------|-----------------|-----------------------| 
D|-----5-3-5-------|-5-3-5-----------|-----5-3-5-------|-5-3-5-----------|-----------------------| 
A|-----------------|-----------------|-----------------|-----------------|-----------------------| 
E|-3-----------3---|---------1---1---|-3-----------3---|---------3---4---|-3---4---5---4---5---6-| 


Gtr Solo: 

e|-----------------|--------------------|----------5----------------|------------------------| 
B|-----------------|--------------------|-------5-----8--5----------|--------------------15--| 
G|-------5---5---5-|------------------5-|-7b(9)-------------7-8-7-5-|-7--5-------------------| 
D|-5-7-------------|---7p5---5--6--7----|---------------------------|-------7----------------| 
A|-----------------|------7-------------|---------------------------|------------------------| 
E|-----------------|--------------------|---------------------------|------------------------| 


e|-------------17--------------------|-------------------------------|---------------------------------| 
B|---------17-----17-----------------|-------------------------------|---------------------------------| 
G|-19b(20)-----------19--17--19--17--|-14----------------------------|---------------------------------| 
D|-----------------------------------|-----14--17--12^13^12----12----|------------------------------10-| 
A|-----------------------------------|----------------------15----15-|-15---17-15-12-----10--11--13----| 
E|-----------------------------------|-------------------------------|----------------12---------------| 


e|--------------------17-20-17----------------------|------------------------------| 
B|------------------18--------18--------------------|-17b(19)-----------10---------| 
G|-----12---------17------------17------------------|-------------------10---------| 
D|-14-----------19----------------19-15-------17-19-|-------19-17-------10---------| 
A|---------17-20------------------------17-18-------|-------------18-17------------| 
E|--------------------------------------------------|------------------------------| 

e|----------------------|----------------------------|-----------------------| 
B|----------------------|----------------------------|-----------------------| 
G|-----(7)^5---3-5---3--|-3--5-3------------------3--|-----------------------| 
D|----------------------|---------5-----2--3--4------|----5-3---3------------| 
A|----------------------|-----------5----------------|--------5-----5--3-----| 
E|----------------------|----------------------------|--------------------6--| 

e|-------------------|------------------|----------10------|------------------------|----------| 
B|-------------------|------------------|-----13-------11--|-8-6---6----------------|----------| 
G|-------------------|------------------|-----12-----------|-----7---7-5-7-5--------|----------| 
D|-------------------|------------------|------------------|-----------------8-5--8-|-5--------| 
A|-3-----1-----------|----1-----1-------|------------------|------------------------|----------| 
E|-----1-----3-2-1-2-|-3-----3----------|------------------|------------------------|----------| 


e|----20---20--17-19-17-15-|-17----------17-15-12-|-------15----------------|--------------------------| 
B|-------------------------|----20b(22)-----------|-16-17----16-17----15----|--------------------------| 
G|-------------------------|----------------------|----------------17----14-|-17--14-------------------| 
D|-------------------------|----------------------|-------------------------|--------17-14-17----------| 
A|-------------------------|----------------------|-------------------------|-----------------17-15----| 
E|------------------------------------------------|-------------------------|-----------------------17-| 


e|--------------------------------|-------------------------------------|-17-19-20-22b(24)-------| 
B|--------------------------------|----------------------------17-19-20-|------------------------| 
G|--------------------------------|-------------------17-18-19----------|------------------------| 
D|--------------------------------|----------17-18-19-------------------|------------------------| 
A|-15-----------------13-15-16-17-|-17-18-19----------------------------|------------------------| 
E|----17-----13-14-15-------------|-------------------------------------|------------------------| 


e|-20-22-20-17-16-17-17--15--12--15-17-15-12-12-11-12-14-12-12-11-12-12-| 
B|----------------------------------------------------------------------| 
G|----------------------------------------------------------------------| 
D|----------------------------------------------------------------------| 
A|----------------------------------------------------------------------| 
E|----------------------------------------------------------------------| 


e|-11-12-14-12--11--10--14-14-15-17--17--16--15--12------|----------------------------------| 
B|---------------------------------------------------15--|-14-13-12-------------------------| 
G|-------------------------------------------------------|----------15-14-13-12----12-------| 
D|-------------------------------------------------------|----------------------16----------| 
A|-------------------------------------------------------|----------------------------------| 
E|-------------------------------------------------------|----------------------------------| 


e|-----------------------------|-------------------------|-15-------------19-15-------------| 
B|-----------------------------|-------------------------|-----18b(20)----------16-15-------| 
G|-----------------------------|-------------------15-18-|----------------------------17-16-| 
D|-12-------15--17----(18)^17--|-17-15-------15-16-------|----------------------------------| 
A|------15---------------------|-------17-15-------------|----------------------------------| 
E|-----------------------------|-------------------------|----------------------------------| 


e|--------------------------|--------------------------|-------------------------| 
B|--------------------------|---------10-12--12-15--12-|-13------12-10-----------| 
G|--------------------------|----9-12------------------|---------------12-10-----| 
D|-17-15--------------------|-12-----------------------|------10--------------12-| 
A|-------17-16-15-----------|--------------------------|-------------------------| 
E|----------------18-15-----|--------------------------|-------------------------| 


e|---------------------------|-------------------------------------| 
B|------------------------13-|-------------------------------------| 
G|-12-12---------10-12-15----|-------------------------------12-15-| 
D|---------11-12-------------|-------------12-15-------12-15-------| 
A|---------------------------|-------13-15-------13-15-------------| 
E|---------------------------|-13-15-------------------------------| 


e|-------------------------------------------------| 
B|-------------------------------------17-18-19-20-| 
G|-------------------------17-18-19-20-------------| 
D|-------------17-18-19-20-------------------------| 
A|-17-18-19-20-------------------------------------| 
E|-------------------------------------------------| 


Keyboard Solo: 

Riff. 2                     (1-3)                   4x  (4th) 6/4 
e|-(17)--------------------|-------------------------|---------------------------------| 
B|-------------------------|------------------------.|---------------------------------| 
G|-------------------------|-------------------------|---------------------------------| 
D|-------------------------|------------------------.|---------------------------------| 
A|-------------------------|-------------------------|---------------------------------| 
E|-5--5--5--6--6--6--5--5--|-5--3--3--3--1--1--0--0--|-5--3--3--3--1--1--0--0--1---1---| 


Riff 1 (1x) 
Riff 2 (1x) 
Riff 1 (1x) 



4/4     (harmony gtr. in 3rds,  A minor) w/ Riff 2 
e|----------------------------------|----------------------------------| 
B|----------------------------------|-------------------------10-13----| 
G|----------------------------------|-9----9-10-9-10-12-10-12----------| 
D|----------9----9-10-9-10-12-10-12-|---12-----------------------------| 
A|-12-10-12---12--------------------|----------------------------------| 
E|----------------------------------|----------------------------------| 


e|-(13)----------|---------------|--------------------------------| 
B|---------------|---------------|--------------------------------| 
G|---------------|---------------|-----------------9----9-10-9-10-| 
D|---------------|---------------|10-9-10-12-10-12---12-----------| 
A|---------------|---------------|--------------------------------| 
E|---------------|---------------|--------------------------------| 

                                                     6/4 
e|----------------------------------12-|-(12)-------|--------------| 
B|----------10----10-12-10-12-13-------|------------|--------------| 
G|-12-10-12----12----------------------|------------|--------------| 
D|-------------------------------------|------------|--------------| 
A|-------------------------------------|------------|--------------| 
E|-------------------------------------|------------|--------------| 


Theme: 
   4/4                                                                                2/4 
e|-----------|-----------|-----------|-----------|-3---------|-----------|-10--------|-----------| 
B|-----------|-----------|-3---------|-----------|-3---------|-----------|-11--------|-----------| 
G|-----------|-----------|-0---------|-----------|-0---------|-----------|-12--------|-----------| 
D|-5---------|-----------|-0---------|-----------|-0---------|-----------|-12--------|-----------| 
A|-5---------|-----------|-----------|-----------|-----------|-----------|-10--------|-----------| 
E|-3---------|-----------|-3---------|-----------|-3---------|-----------|-----------|-----------| 

Outro: 

e|-------------|-------------|-------------|-------------|-------------|-------------|-------------| 
B|-------------|-------------|-------------|-------------|-------------|-------------|-------------| 
G|-------------|-------------|-------------|-------------|-------------|-------------|-------------| 
D|-------------|-------------|-------------|-------------|-------------|-------------|-------------| 
A|-------------|-------------|-------------|-------------|-------------|-------------|-------------| 
E|-3--4--3--4--|-5--4--5--6--|-5-----------|-------------|-5--6--5--6--|-7--6--7--8--|-7-----------| 


e|-------------|-------------|-------------|-------------|-------------|-------------|-------------| 
B|-------------|-------------|-------------|-------------|-------------|-------------|-------------| 
G|-------------|-------------|-------------|-------------|-------------|-------------|-------------| 
D|-------------|-------------|-------------|-------------|-------------|-------------|-------------| 
A|-------------|-2--3--2--3--|-4--3--4--5--|-4-----------|-------------|-4--5--4--5--|-6--5--6--7--| 
E|-------------|-------------|-------------|-------------|-------------|-------------|-------------| 


e|-------------|----0-----------||-------------|-------------|-------------|-------------| 
B|-------------|------4---------||-------------|-------------|-------------|-------------| 
G|-------------|--------7-------||-------------|-------------|-------------|-------------| 
D|-------------|----------------||-------------|-------------|-------------|-------------| 
A|-6-----------|----------7-6-5-||-------------|-------------|-------------|-------5--6--| 
E|-------------|----------------||-0--1--0--1--|-2--1--2--3--|-4--3--4--5--|-6--7--------| 


e|-------------|-------------|-------------|-------------|-------------|-------0-------------| 
B|-------------|-------------|-------------|-------------|-------------|-------0-------------| 
G|-------------|-------------|-------------|----4--6--8--|-9--7--5-----|-------9-------------| 
D|-------------|-4-----4--5--|-6--5--6--7--|-8-----------|----------9--|-7-5---9-------------| 
A|-7--8--7--8--|----8--------|-------------|-------------|-7--5--------|-----8-7-------------| 
E|-------------|-------------|-------------|-------------|-------8--7--|-5-3-1-0-------------| 

************************************ 

| /   slide up 
| \   slide down 
| h   hammer-on 
| p   pull-off 
| ~   vibrato 
| +   harmonic 
| x   Mute note 
| b   Bend 
| pb  Pre-bend 
| br  Bend release 
| pbr Pre-bend release 
| brb Bend release bend 

************************************ 
	  

No existe una video leccione para esta canción

request
LosAcordes
Buscar
auto avanzar rasgueos aumentar disminuir cambiar color esconder acordes gráficos
losacordes exhibir acordes losacordes youTube video losacordes ocultar tabs losacordes ir hacia arriba losacordes