Dream Theater

Início > Dream Thea... > acordes

Never Enough Tablatura

Dream Theater

Dificultad:Ningún gradoNingún grado

carlluz

tuner correct add songbook print version text version salvar en e-mail
acordesukuleletablaturabajobateríaarmónicaflautacavacopiano Guitar Pro
acordes

Never Enough

	            



 
                                            4x 
||---------------------------------------|----------------------------------|| 
||o--------------------------------------|---------------------------------o|| 
||---------------------------------------|----------------------------------|| 
||---------------------------------------|----------------------------------|| 
||o--------------------------------------|---------------------------------o|| 
||--0-12-10-0-10-12-0-8-0-12-7-0-5-7-0-5-|-0-7-3-0-2-3-0-2-0-3-0-5-0-7-2-3--|| 



   Intro 
    N.C.(Dm) 
    Gtrs I, II, III 
 
                                             4x 
||---------------------------------------|-----------------------------------|| 
||o--------------------------------------|----------------------------------o|| 
||---------------------------------------|-----------------------------------|| 
||---------------------------------------|-----------------------------------|| 
||o--------------------------------------|----------------------------------o|| 
||--0-12p10-0-10h12-0-8-0-12p7-0-5h7-0-5-|-0-7p3-0-2h3-0-2-0-3-0-5-0-7p2h3---|| 



 Verse 
  (Bbmaj7/D)      (Dm) 
  Gtrs I, II 
  PM------------------------------------------------------------| 
 
                                    
|--------------------------------|--------------------------------| 
|--------------------------------|--------------------------------| 
|--------------------------------|--------------------------------| 
|--------------------------------|--------------------------------| 
|--------------------------------|--------------------------------| 
|-0-0-0-0---0-0-0-----0-0----0-0-|-0-0-0-0---0-0-0-----0-0----0-0-| 

| 
| Gtr IV 
 
|                                                 
|--------------------------------|-0------------------------------| 
|-1----------------0-------------|-0----------------0-------------| 
|-0----------------0-------------|-0----------------0-------------| 
|-2---------------(2)------------|-2---------------(2)------------| 
|-2---------------(2)------------|-2---------------(2)------------| 
|-0---------------(0)------------|-0---------------(0)------------| 



  (A7sus4b9/D)    (A7sus4/D)                       (Dm) 
  PM------------------------------------------------------------| 
 
                                    
|--------------------------------|--------------------------------| 
|--------------------------------|--------------------------------| 
|--------------------------------|--------------------------------| 
|--------------------------------|--------------------------------| 
|--------------------------------|--------------------------------| 
|-0-0-0-0---0-0-0-----0-0----0-0-|-0-0-0-0---0-0-0-----0-0----0-0-| 

| 
 
|                                                 
|--------------------------------|-5------------------------------| 
|-1----------------5-------------|-5----------------5-------------| 
|-2----------------2-------------|-2----------------0-------------| 
|-2---------------(2)------------|-2---------------(2)------------| 
|-2---------------(2)------------|-2---------------(2)------------| 
|-0---------------(0)------------|-0---------------(0)------------| 



  (Gm)            (G5) 
  PM------------------------------------------------------------| 
 
                                    
|--------------------------------|--------------------------------| 
|--------------------------------|--------------------------------| 
|--------------------------------|--------------------------------| 
|--------------------------------|--------------------------------| 
|--------------------------------|--------------------------------| 
|-5-5-5-5---5-5-5-----5-5----5-5-|-5-5-5-5---5-5-5-----5-5----5-5-| 

| 
 
|                                                 
|--------------------------------|-5------------------------------| 
|-1----------------5-------------|-5----------------5-------------| 
|-2----------------2-------------|-2----------------2-------------| 
|-2---------------(2)------------|-2---------------(2)------------| 
|-0---------------(0)------------|-0---------------(0)------------| 
|--------------------------------|--------------------------------| 



                  (C#º) 
  PM------------------------------------------------------------| 
 
                                    
|------------------------------|----------------------------------| 
|------------------------------|----------------------------------| 
|------------------------------|----------------------------------| 
|------------------------------|----------------------------------| 
|-6-6-6-6---6-6-6---6-6----6-6-|-6-6-6-6---6-6-6---6-6--------6-6-| 
|------------------------------|----------------------------------| 

| 
 
|                                             Q         Q 
|------------------------------|-5--------------------------------| 
|-----------------7------------|-7-------------------------7------| 
|-8---------------8------------|-8---------------8--------(8)-----| 
|-7---------------7------------|-7---------------7--------(7)-----| 
|-6---------------6------------|-6---------------6--------(6)-----| 
|------------------------------|----------------------------------| 



  (Bbmaj7/D)      (Dm) 
  PM------------------------------------------------------------| 
 
                                    
|--------------------------------|--------------------------------| 
|--------------------------------|--------------------------------| 
|--------------------------------|--------------------------------| 
|--------------------------------|--------------------------------| 
|--------------------------------|--------------------------------| 
|-0-0-0-0---0-0-0-----0-0----0-0-|-0-0-0-0---0-0-0-----0-0----0-0-| 

| 
 
|                                                 
|------------------0-------------|-3----------------0-------------| 
|-1----------------0-------------|-0----------------0-------------| 
|-0----------------0-------------|-0----------------0-------------| 
|-2---------------(2)------------|-2---------------(2)------------| 
|-2---------------(2)------------|-2---------------(2)------------| 
|-0---------------(0)------------|-0---------------(0)------------| 



  (Bb)                                                (Bb6) 
   PM---------------------------------------------------------------| 
 
                                        
|----------------------------------|----------------------------------| 
|----------------------------------|----------------------------------| 
|----------------------------------|----------------------------------| 
|----------------------------------|----------------------------------| 
|--3-3-3-3---3-3-3------3-3----3-3-|--3-3-3-3---3-3-3------3-3----3-3-| 
|----------------------------------|----------------------------------| 

| 
 
|                                                     
|----------------------------------|--8-------------------------------| 
|--------------------8-------------|--8----------------10-------------| 
|--9-----------------9-------------|--9-----------------9-------------| 
|-10---------------(10)------------|-10---------------(10)------------| 
|-10---------------(10)------------|-10---------------(10)------------| 
|--8----------------(8)------------|--8----------------(8)------------| 



  (Gm)            (G5)                                        (Gm) 
  PM----------------------------------------------------------------| 
 
                                        
|--------------------------------|------------------------------------| 
|--------------------------------|------------------------------------| 
|--------------------------------|------------------------------------| 
|--------------------------------|------------------------------------| 
|-0-0-0-0---0-0-0-----0-0----0-0-|-0-0-0-0---0-0-0-----0-0--------0-0-| 
|--------------------------------|------------------------------------| 

| 
 
|                                                Q          Q 
|--------------------------------|-5----------------------------------| 
|-1----------------5-------------|-5----------------5---------(5)-----| 
|-2----------------2-------------|-2----------------2----------5------| 
|-2---------------(2)------------|-2---------------(2)--------(2)-----| 
|-0---------------(0)------------|-0---------------(0)--------(0)-----| 
|--------------------------------|------------------------------------| 



  (C#º)                           (Gº/C#)          (A7b13/C#) 
  PM----------------------------------------------------------| 
 
                                  
|-------------------------------|-------------------------------| 
|-------------------------------|-------------------------------| 
|-------------------------------|-------------------------------| 
|-------------------------------|-------------------------------| 
|-6-6-6-6---6-6-6----6-6----6-6-|--6-6-6-6---6-6-6---6-6----6-6-| 
|-------------------------------|-------------------------------| 

| 
 
|                                                
|-------------------------------|--8---------------7------------| 
|-7---------------10------------|-10---------------8------------| 
|-8----------------8------------|--8---------------8------------| 
|-7----------------7------------|--7---------------7------------| 
|-6----------------6------------|--6---------------6------------| 
|-------------------------------|-------------------------------| 



  N.C. 
   PM----------------------------------------------- 
 
                                    
|--------------------------------------------------| 
|--------------------------------------------------| 
|--------------------------------------------------| 
|--------------------------------------------------| 
|--------------------------------------------------| 
|--0--0--0--0-----0--0--0-----0--0------------0--0-| 

| 
 
| Gtr III 
|  PM----------------------------------------------- 

 
|                                  
|----------------------15--------------------------| 
|-------------------17----17-----------------------| 
|----------------16----------16--------------------| 
|----------14-17----------------17-14--------------| 
|-------14-----------------------------14----------| 
|-12-15-----------------------------------15-12-10-| 



 -----------------------------------------------| 
 
                                    
|--------------------------------------------------| 
|--------------------------------------------------| 
|--------------------------------------------------| 
|--------------------------------------------------| 
|--------------------------------------------------| 
|--0--0--0--0-----0--0--0-----0--0------------0--0-| 

 
| 
|-----------------------------------------------| 

 
|                                  
|----------------------15--------------------------| 
|-------------------17----17-----------------------| 
|----------------16----------16--------------------| 
|----------14-17----------------17-14--------------| 
|-------14-----------------------------14----------| 
|-12-15-----------------------------------15-12-15-| 



 
                                    
|--------------------------------------------------| 
|--------------------------------------------------| 
|--------------------------------------------------| 
|--------------------------------------------------| 
|--------------------------------------------------| 
|--2--2--2--2-----2--2--2-----2--2------------2--2-| 

 
| 
|  PM----------------------------------------------- 

 
|                                  
|-------------------------14-----------------------| 
|-------------------14-17----17-14-----------------| 
|----------------15----------------15--------------| 
|----------14-16-----------------------16-14-------| 
|----13-16-----------------------------------16-13-| 
|-14-----------------------------------------------| 



 
                                    
|--------------------------------------------------| 
|--------------------------------------------------| 
|--------------------------------------------------| 
|--------------------------------------------------| 
|--------------------------------------------------| 
|--2--2--2--2-----2--2--2-----2--2------------2--2-| 

 
| 
|-----------------------------------------------| 

 
|                                  
|-------------------------14-----------------------| 
|-------------------14-17----17-14-----------------| 
|----------------15----------------15--------------| 
|----------14-16-----------------------16-14-------| 
|----13-16-----------------------------------16-13-| 
|-14-----------------------------------------------| 



 
                                    
|--------------------------------------------------| 
|--------------------------------------------------| 
|--------------------------------------------------| 
|--------------------------------------------------| 
|--0--0--0--0-----0--0--0-----0--0------------0--0-| 
|--------------------------------------------------| 

 
| 
|  PM----------------------------------------------- 

 
|                                  
|-------------------12-17-12-----------------------| 
|----------------13----------13--------------------| 
|----------12-14----------------14-12--------------| 
|-------14-----------------------------14----------| 
|-12-15-----------------------------------15-12----| 
|-----------------------------------------------15-| 



 
                                    
|--------------------------------------------------| 
|--------------------------------------------------| 
|--------------------------------------------------| 
|--------------------------------------------------| 
|--0--0--0--0-----0--0--0-----0--0------------0--0-| 
|--------------------------------------------------| 

 
| 
|-----------------------------------------------| 

 
|                                  
|-------------------12-17-12-----------------------| 
|----------------13----------13--------------------| 
|----------12-14----------------14-12--------------| 
|-------14-----------------------------14----------| 
|-12-15-----------------------------------15-12----| 
|-----------------------------------------------15-| 



 
                                    
|--------------------------------------------------| 
|--------------------------------------------------| 
|--------------------------------------------------| 
|--------------------------------------------------| 
|--2--2--2--2-----2--2--2-----2--2------------2--2-| 
|--------------------------------------------------| 

 
| 
|  PM-------------------------------------------| 

 
|                                  
|-------------------14-19-14-----------------------| 
|-------------14-16----------16-14-----------------| 
|----------16----------------------16--------------| 
|----13-16-----------------------------16-13-------| 
|-14-----------------------------------------14-12-| 
|--------------------------------------------------| 



 
                         
|----------------------------------------| 
|----------------------------------------| 
|----------------------------------------| 
|----------------------------------------| 
|--2-2--2-2----2--2-2----2--2-------2-2--| 
|----------------------------------------| 

| 
 
|  E    E    E    E    E    E     Q 
|----------------------------------------| 
|-----------16-------------------16------| 
|------16--------16--------------16------| 
|-16------------------16-----------------| 
|--------------------------14------------| 
|----------------------------------------| 



 Chorus 
  (Bb7)                       D5     F         E       D 
 
  Q  Q        Q      Q      Q  E E  Q  E E    Q  E E  
|------------|-3------------|----------------|---------------| 
|------------|--------------|----------------|---------------| 
|-------3----|----3---------|--------12------|-11------9\----| 
|----2-------|--------------|-2--x-x-----x-x-|-----x-x-------| 
|-3----------|--------------|-2--x-x-10--x-x-|--9--x-x-7\----| 
|------------|---------2b3--|-0--x-x-----x-x-|-----x-x-------| 



  (Bb7)                       D5     F         E       D 
  Gtr I 
 
  Q  Q        Q      Q      Q  E E  Q  E E    Q  E E  
|------------|-3------------|----------------|---------------| 
|------------|--------------|----------------|---------------| 
|-------3----|----3---------|--------12------|-11------9\----| 
|----2-------|--------------|-2--x-x-----x-x-|-----x-x-------| 
|-3----------|--------------|-2--x-x-10--x-x-|--9--x-x-7\----| 
|------------|---------2b3--|-0--x-x-----x-x-|-----x-x-------| 

| 
| Gtr II 
 
| Q  Q        Q      Q      Q  E E  Q  E E    Q  E E  
|------------|-3------------|----------------|---------------| 
|------------|--------------|--------12------|-10------8\----| 
|-------3----|----3---------|----------------|---------------| 
|----2-------|--------------|-2--x-x--9--x-x-|--7--x-x-5\----| 
|-3----------|--------------|-2--x-x-----x-x-|-----x-x-------| 
|------------|---------2b3--|-0--x-x-----x-x-|-----x-x-------| 



  (Bb7)                     F5 
  Gtrs I, II 
 
  Q  Q        Q  .        E +E  Q  Q  Q    Q  Q  Q  Q 
|------------|-3----------|-3-(3)----3-----|-3-----3-----| 
|------------|------------|-3-(3)-3-----3--|-3--3-----3--| 
|-------3----|----3-------|-0-(0)----------|-0-----------| 
|----2-------|------------|-0-(0)----------|-0-----------| 
|-3----------|------------|----------------|-------------| 
|------------|------------|-3-(3)----------|-3-----------| 



  A5                        D5            C5 
         ~~~~~~~~~~~~~~ 
 
                        Q.   E       Q.   E  
|-------------|-----------|-------------|-------------| 
|-------------|-----------|-------------|-------------| 
|-4-----------|-----------|-9----x-9----|-7----x-7----| 
|-4----/10----|-9---------|-9----x-9----|-7----x-7----| 
|-2-----------|------9----|-7----x-7----|-5----x-5----| 
|-------------|-----------|-------------|-------------| 



  (Bb7)                                       F5 
                                ~~~~~~~~~ 
 
  E E E E E E Q    E +E    +E  +E    +       Q  Q  Q  Q    Q  Q  Q  Q 
|----------------|--------------------------|-3-----3-----|-3-----3-----| 
|----------------|--------------------------|-3--3-----3--|-3--3-----3--| 
|----------------|-3-(3)b5r(3)-(3)b5r(3)----|-0-----------|-0-----------| 
|-------------2--|--------------------------|-0-----------|-0-----------| 
|-3-3-3-3-3-3----|--------------------------|-------------|-------------| 
|----------------|--------------------------|-3-----------|-3-----------| 



  C5/G        C#5/G# 
 
                 
|-----------|-----------| 
|-----------|-----------| 
|-7----7----|-8----8----| 
|-7----7----|-8----8----| 
|-5----5----|-6----6----| 
|-5----5----|-6----6----| 



 
                                           
||---------------------------------------|-----------------------------------|| 
||o--------------------------------------|----------------------------------o|| 
||---------------------------------------|-----------------------------------|| 
||---------------------------------------|-----------------------------------|| 
||o--------------------------------------|----------------------------------o|| 
||--0-12p10-0-10h12-0-8-0-12p7-0-5h7-0-5-|-0-7p3-0-2h3-0-2-0-3-0-5-0-7p2h3---|| 



 Verse 
  (Dm) 
  PM---------------------------------------------------------------| 
 
                                     
|---------------------------------|----------------------------------| 
|---------------------------------|----------------------------------| 
|---------------------------------|----------------------------------| 
|---------------------------------|-/9-9-9-9-9-9-9-9-9-9-9-9-9-9-9-9-| 
|-7-7-7-7-7-7-7-7-7-7-7-7-7-7-7-7-|----------------------------------| 
|---------------------------------|----------------------------------| 

| 
| Gtr V 
 
| W                                  W 
|---------------------------------|--0-------------------------------| 
|-0-------------------------------|--0-------------------------------| 
|-0-------------------------------|--0-------------------------------| 
|-2-------------------------------|--2-------------------------------| 
|---------------------------------|----------------------------------| 
|-0-------------------------------|--0-------------------------------| 



  (Gm/D) 
  PM------------------------------- 
 
                  
|---------------------------------| 
|---------------------------------| 
|---------------------------------| 
|---------------------------------| 
|-7-7-7-7-7-7-7-7-7-7-7-7-7-7-7-7-| 
|---------------------------------| 

| 
 
| W 
|---------------------------------| 
|-1-------------------------------| 
|-2-------------------------------| 
|-2-------------------------------| 
|---------------------------------| 
|-0-------------------------------| 



 -----------------------------------------------| 
 
                                   
|--------------------------------------------------| 
|--------------------------------------------------| 
|--------------------------------------------------| 
|-/10-10-10-10-10-10-10-10-10-10-10-10-10-10-10-10-| 
|--------------------------------------------------| 
|--------------------------------------------------| 

| 
 
|   W 
|---0----------------------------------------------| 
|---1----------------------------------------------| 
|---2----------------------------------------------| 
|---2----------------------------------------------| 
|--------------------------------------------------| 
|---0----------------------------------------------| 



  (Gm) 
  PM--------------------------------------------------------------| 
 
                                    
|---------------------------------|---------------------------------| 
|---------------------------------|---------------------------------| 
|---------------------------------|---------------------------------| 
|-7-7-7-7-7-7-7-7-7-7-7-7-7-7-7-7-|---------------------------------| 
|---------------------------------|-7-7-7-7-7-7-7-7-7-7-7-7-7-7-7-7-| 
|---------------------------------|---------------------------------| 

| 
 
| W                                 W 
|---------------------------------|-5-------------------------------| 
|-5-------------------------------|-5-------------------------------| 
|-5-------------------------------|-5-------------------------------| 
|-7-------------------------------|-7-------------------------------| 
|-0-------------------------------|-0-------------------------------| 
|---------------------------------|---------------------------------| 




                                             
|------------------------------------------|---------------------------------| 
|------------------------------------------|---------------------------------| 
|------------------------------------------|---------------------------------| 
|-----------------/10-10-10-10-10-10-10-10-|-9-9-9-9-9-9-9-9-----------------| 
|-6-6-6-6-6-6-6-6--------------------------|-----------------6-6-6-6-6-6-6-6-| 
|------------------------------------------|---------------------------------| 


|------------------------------------------|-5-------------------------------| 
|-7----------------------------------------|-7-------------------------------| 
|-8----------------------------------------|-8-------------------------------| 
|-7----------------------------------------|-7-------------------------------| 
|-6----------------------------------------|-6-------------------------------| 
|------------------------------------------|---------------------------------| 


 
                                     
|---------------------------------|----------------------------------| 
|---------------------------------|----------------------------------| 
|---------------------------------|----------------------------------| 
|---------------------------------|-/9-9-9-9-9-9-9-9-9-9-9-9-9-9-9-9-| 
|-7-7-7-7-7-7-7-7-7-7-7-7-7-7-7-7-|----------------------------------| 
|---------------------------------|----------------------------------| 


|---------------------------------|--3-------------------------------| 
|-0-------------------------------|--0-------------------------------| 
|-0-------------------------------|--0-------------------------------| 
|-2-------------------------------|--2-------------------------------| 
|---------------------------------|----------------------------------| 
|-0-------------------------------|--0-------------------------------| 



 
                   
|----------------------------------| 
|----------------------------------| 
|----------------------------------| 
|----------------------------------| 
|--3-3-3-3-3-3-3-3-3-3-3-3-3-3-3-3-| 
|----------------------------------| 


|----------------------------------| 
|----------------------------------| 
|--9-------------------------------| 
|-10-------------------------------| 
|-10-------------------------------| 
|--8-------------------------------| 



 
                                   
|--------------------------------------------------| 
|--------------------------------------------------| 
|--------------------------------------------------| 
|-/10-10-10-10-10-10-10-10-10-10-10-10-10-10-10-10-| 
|--------------------------------------------------| 
|--------------------------------------------------| 


|---8----------------------------------------------| 
|--------------------------------------------------| 
|---9----------------------------------------------| 
|--10----------------------------------------------| 
|--10----------------------------------------------| 
|---8----------------------------------------------| 



 
                                    
|---------------------------------|---------------------------------| 
|---------------------------------|---------------------------------| 
|---------------------------------|---------------------------------| 
|-7-7-7-7-7-7-7-7-7-7-7-7-7-7-7-7-|---------------------------------| 
|---------------------------------|-7-7-7-7-7-7-7-7-7-7-7-7-7-7-9-9-| 
|---------------------------------|---------------------------------| 


|---------------------------------|-5-------------------------------| 
|-1-------------------------------|-5-------------------------------| 
|-2-------------------------------|-2-------------------------------| 
|-2-------------------------------|-2-------------------------------| 
|-0-------------------------------|-0-------------------------------| 
|---------------------------------|---------------------------------| 



 
                                             
|------------------------------------------|---------------------------------| 
|------------------------------------------|---------------------------------| 
|------------------------------------------|---------------------------------| 
|-----------------/10-10-10-10-10-10-10-10-|-9-9-9-9-9-9-9-9-----------------| 
|-6-6-6-6-6-6-6-6--------------------------|-----------------6-6-6-6-6-6-6-6-| 
|------------------------------------------|---------------------------------| 

                                         W 
|------------------------------------------|-5-------------------------------| 
|-7----------------------------------------|-7-------------------------------| 
|-8----------------------------------------|-8-------------------------------| 
|-7----------------------------------------|-7-------------------------------| 
|-6----------------------------------------|-6-------------------------------| 
|------------------------------------------|---------------------------------| 



  
 
                                  
|-------------------------------------------------| 
|-------------------------------------------------| 
|--9--9--9--9--9--9--9--9--9--9--9--9--9--9--9--9-| 
|-------------------------------------------------| 
|--7--7--7--7--7--7--7--7--7--7--7--7--7--7--7--7-| 
|-------------------------------------------------| 


 
|                                 
|----------------------15-------------------------| 
|-------------------17----17----------------------| 
|----------------16----------16-------------------| 
|----------14-17----------------17-14-------------| 
|-------14----------------------------14----------| 
|-12-15----------------------------------15-12-10-| 


 
                                   
|--------------------------------------------------| 
|-/12-12-12-12-12-12-12-12-12-12-12-12-12-12-12-12-| 
|--------------------------------------------------| 
|--/9--9--9--9--9--9--9--9--9--9--9--9--9--9--9--9-| 
|--------------------------------------------------| 
|--------------------------------------------------| 

 

 
|                                  
|-----------------------15-------------------------| 
|--------------------17----17----------------------| 
|-----------------16----------16-------------------| 
|-----------14-17----------------17-14-------------| 
|--------14----------------------------14----------| 
|--12-15----------------------------------15-12-15-| 



 
                                  
|-------------------------------------------------| 
|-------------------------------------------------| 
|-11-11-11-11-11-11-11-11-11-11-11-11-11-11-11-11-| 
|-------------------------------------------------| 
|--9--9--9--9--9--9--9--9--9--9--9--9--9--9--9--9-| 
|-------------------------------------------------| 

 

|                                 
|-------------------------14----------------------| 
|-------------------14-17----17-14----------------| 
|----------------15----------------15-------------| 
|----------14-16----------------------16-14-------| 
|----13-16----------------------------------16-13-| 
|-14----------------------------------------------| 



 
                                   
|--------------------------------------------------| 
|-/11-11-11-11-11-11-11-11-11-11-11-11-11-11-11-11-| 
|--------------------------------------------------| 
|--/8--8--8--8--8--8--8--8--8--8--8--8--8--8--8--8-| 
|--------------------------------------------------| 
|--------------------------------------------------| 

 

|                                  
|--------------------------14----------------------| 
|--------------------14-17----17-14----------------| 
|-----------------15----------------15-------------| 
|-----------14-16----------------------16-14-------| 
|-----13-16----------------------------------16-13-| 
|--14----------------------------------------------| 



 
                                  
|-------------------------------------------------| 
|-10-10-10-10-10-10-10-10-10-10-10-10-10-10-10-10-| 
|-------------------------------------------------| 
|--7--7--7--7--7--7--7--7--7--7--7--7--7--7--7--7-| 
|-------------------------------------------------| 
|-------------------------------------------------| 

 

 
|                                 
|-------------------12-17-12----------------------| 
|----------------13----------13-------------------| 
|----------12-14----------------14-12-------------| 
|-------14----------------------------14----------| 
|-12-15----------------------------------15-12----| 
|----------------------------------------------15-| 



 
                                   
|--------------------------------------------------| 
|-/13-13-13-13-13-13-13-13-13-13-13-13-13-13-13-13-| 
|--------------------------------------------------| 
|-/10-10-10-10-10-10-10-10-10-10-10-10-10-10-10-10-| 
|--------------------------------------------------| 
|--------------------------------------------------| 

 

 
|                                  
|--------------------12-17-12----------------------| 
|-----------------13----------13-------------------| 
|-----------12-14----------------14-12-------------| 
|--------14----------------------------14----------| 
|--12-15----------------------------------15-12----| 
|-----------------------------------------------15-| 



 
                                  
|-------------------------------------------------| 
|-12-12-12-12-12-12-12-12-12-12-12-12-12-12-12-12-| 
|-------------------------------------------------| 
|--9--9--9--9--9--9--9--9--9--9--9--9--9--9--9--9-| 
|-------------------------------------------------| 
|-------------------------------------------------| 

 
 
                                
|-------------------14-19-14----------------------| 
|-------------14-16----------16-14----------------| 
|----------16----------------------16-------------| 
|----13-16----------------------------16-13-------| 
|-14----------------------------------------14-12-| 
|-------------------------------------------------| 



                                   
|--------------------------------------------------| 
|-/16-16-16-16-16-16-16-16-16-16-16-16-16-16-16-16-| 
|--------------------------------------------------| 
|-/13-13-13-13-13-13-13-13-13-13-13-13-13-13-13-13-| 
|--------------------------------------------------| 
|--------------------------------------------------| 


|--------------------------------------------------| 
|--------------16----------------------16----------| 
|--------16----------16----------------16----------| 
|--16----------------------16----------------------| 
|--------------------------------14----------------| 
|--------------------------------------------------| 




|------------|-3------------|----------------|---------------| 
|------------|--------------|----------------|---------------| 
|-------3----|----3---------|--------12------|-11------9\----| 
|----2-------|--------------|-2--x-x-----x-x-|-----x-x-------| 
|-3----------|--------------|-2--x-x-10--x-x-|--9--x-x-7\----| 
|------------|---------2b3--|-0--x-x-----x-x-|-----x-x-------| 



  
|------------|-3------------|----------------|---------------| 
|------------|--------------|----------------|---------------| 
|-------3----|----3---------|--------12------|-11------9\----| 
|----2-------|--------------|-2--x-x-----x-x-|-----x-x-------| 
|-3----------|--------------|-2--x-x-10--x-x-|--9--x-x-7\----| 
|------------|---------2b3--|-0--x-x-----x-x-|-----x-x-------| 


|------------|-3------------|----------------|---------------| 
|------------|--------------|--------12------|-10------8\----| 
|-------3----|----3---------|----------------|---------------| 
|----2-------|--------------|-2--x-x--9--x-x-|--7--x-x-5\----| 
|-3----------|--------------|-2--x-x-----x-x-|-----x-x-------| 
|------------|---------2b3--|-0--x-x-----x-x-|-----x-x-------| 


|------------|-3----------|-3-(3)----3-----|-3-----3-----| 
|------------|------------|-3-(3)-3-----3--|-3--3-----3--| 
|-------3----|----3-------|-0-(0)----------|-0-----------| 
|----2-------|------------|-0-(0)----------|-0-----------| 
|-3----------|------------|----------------|-------------| 
|------------|------------|-3-(3)----------|-3-----------| 



|-------------|-----------|-------------|-------------| 
|-------------|-----------|-------------|-------------| 
|-4-----------|-----------|-9----x-9----|-7----x-7----| 
|-4----/10----|-9---------|-9----x-9----|-7----x-7----| 
|-2-----------|------9----|-7----x-7----|-5----x-5----| 
|-------------|-----------|-------------|-------------| 


 
|----------------|--------------------------|-3-----3-----|-3-----3-----| 
|----------------|--------------------------|-3--3-----3--|-3--3-----3--| 
|----------------|-3-(3)b5r(3)-(3)b5r(3)----|-0-----------|-0-----------| 
|-------------2--|--------------------------|-0-----------|-0-----------| 
|-3-3-3-3-3-3----|--------------------------|-------------|-------------| 
|----------------|--------------------------|-3-----------|-3-----------| 

 
|----------------|--------------------------|-3-----3-----|-3-----3-----| 
|----------------|-5-(5)b6r(5)-(5)b6r(5)----|-3--3-----3--|-3--3-----3--| 
|----------------|--------------------------|-0-----------|-0-----------| 
|-------------2--|--------------------------|-0-----------|-0-----------| 
|-3-3-3-3-3-3----|--------------------------|-------------|-------------| 
|----------------|--------------------------|-3-----------|-3-----------| 




|-----------|-----------| 
|-----------|-----------| 
|-7----7----|-8----8----| 
|-7----7----|-8----8----| 
|-5----5----|-6----6----| 
|-5----5----|-6----6----| 



 Interlude 
  D5 
 
|---------------------------------------------| 
|---------------------------------------------| 
|-9\------------------------------------------| 
|-9\------------------------------------------| 
|-7\------------------------------------------| 
|---------------------------------------------| 


 
|                             
|---------------------------------------------| 
|---------------------------------------------| 
|---------------------------------------------| 
|--------------------12-14--------------------| 
|---------------------------------------------| 
|-0--10-12-0-10-12-0-------0-10-12-0-10-12-10-| 



 

|------------------------------------------| 
|------------------------------------------| 
|------------------------------------------| 
|------------------------------------------| 
|------------------------------------------| 
|------------------------------------------| 


                         
|------------------------------------------| 
|-------------------15-17------------------| 
|------------------------------------------| 
|-----------12-14-----------12-14----------| 
|-----------------------------------9-10-9-| 
|-0-10-12-0-------0-------0-------0--------| 



 
 
|--------------------------------------------| 
|--------------------------------------------| 
|--------------------------------------------| 
|--------------------------------------------| 
|--------------------------------------------| 
|--------------------------------------------| 

| 
 
|                            
|--------------------------------------------| 
|--------------------------------------------| 
|--------------------------------------------| 
|-------------------12-14--------------------| 
|--------------------------------------------| 
|-0-10-12-0-10-12-0-------0-10-12-0-10-12-10-| 




|-------------------------------------------| 
|-------------------------------------------| 
|-------------------------------------------| 
|-------------------------------------------| 
|-------------------------------------------| 
|-------------------------------------7/----| 

 
|                           
|------------------------10-12----15-17--19-| 
|----------------10-12---------12-----------| 
|----------7-9---------9--------------------| 
|----7-9------------------------------------| 
|--------------7----------------------------| 
|-0------7----------------------------------| 





|------------------------------------------------| 
|------------------------------------------------| 
|------------------------------------------------| 
|------------------------------------------------| 
|------------------------------------------------| 
|-12--------------------(12)\--------------------| 


 
|                                
|------------------------------------------------| 
|------------------------------------------------| 
|------------------------------------------------| 
|--------------------12--14----------------------| 
|------------------------------------------------| 
|--0-10-12-0-10-12-0----------0-10-12-0-10-12-10-| 





|------------------------------------------| 
|------------------------------------------| 
|------------------------------------------| 
|------------------------------------------| 
|------------------------------------------| 
|------------------------------------------| 

| 
 
|                          
|------------------------------------------| 
|-------------------15-17------------------| 
|------------------------------------------| 
|-----------12-14-----------12-14----------| 
|-----------------------------------9-10-9-| 
|-0-10-12-0-------0-------0-------0--------| 



 

|---------------------------------------------| 
|---------------------------------------------| 
|---------------------------------------------| 
|---------------------------------------------| 
|---------------------------------------------| 
|----------------------------------------x----| 

| 
 
|                             
|---------------------------------------------| 
|---------------------------------------------| 
|---------------------------------------------| 
|--------------------12-14--------------------| 
|---------------------------------------------| 
|-0--10-12-0-10-12-0-------0-10-12-0-10-12-10-| 




|----------------------------------------------------------------| 
|----------------------------------------------------------------| 
|----------------------------------------------------------------| 
|----------------------------------------------------------------| 
|----------------------------------------------------------------| 
|-9/------------------------21\----------------------------------| 

 


 
|                                        
|-------------------------------------------19-------24-------22-| 
|------------------------10--------17----17-------24----22-24----| 
|----------------------7--------16----16-------21----------------| 
|----------7-9-------7------14-----------------------------------| 
|--------7-----0-5-9---------------------------------------------| 
|-0--5-7---------------------------------------------------------| 



Solo:
                                    
||--------------------------------------------------| 
||o-------------------------------------------------| 
||--------------------------------------------------| 
||--------------------12-12-------13-13-12-12-------| 
||o-10-10-13-13-10-10-------10-10-------------12-12-| 
||--------------------------------------------------| 



 
                                  
|---------------------------------------------------|| 
|--------------------------------------------------o|| 
|---------------------------------------------------|| 
|-------------------12-12-------13-13-12-12---------|| 
|-10-10-13-13-10-10-------10-10-------------12-12--o|| 
|---------------------------------------------------|| 



 
                            
|-------------------------------------------| 
|-------------------------------------------| 
|-------------------------------------------| 
|-------------------------------------------| 
|---------------10-10-----13-13-12-12-------| 
|-8-8-11-11-8-8-------8-8-------------11-11-| 



 
                            
|-------------------------------------------| 
|-------------------------------------------| 
|-------------------------------------------| 
|-------------------------------------------| 
|---------------10-10-----13-13-12-12-------| 
|-8-8-11-11-8-8-------8-8-------------11-11-| 



 
                            
|-------------------------------------------| 
|-------------------------------------------| 
|-------------------------------------------| 
|---------------10-10-----13-13-12-12-------| 
|-9-9-12-12-9-9-------9-9-------------12-12-| 
|-------------------------------------------| 



 
                          
|-----------------------------------------| 
|-----------------------------------------| 
|-----------------------------------------| 
|---------------10-10-----13-13-12-12-----| 
|-9-9-12-12-9-9-------9-9-------------9-9-| 
|-----------------------------------------| 



 
                                  
|-------------------------------------------------| 
|-------------------------------------------------| 
|-------------------------------------------------| 
|-------------------12-12-------13-13-12-12-------| 
|-10-10-13-13-10-10-------10-10-------------12-12-| 
|-------------------------------------------------| 



 
                                  
|-------------------------------------------------| 
|-------------------------------------------------| 
|-------------------------------------------------| 
|-------------------12-12-------13-13-12-12-------| 
|-10-10-13-13-10-10-------10-10-------------10-10-| 
|-------------------------------------------------| 

/tab# 
	  

No existe una video leccione para esta canción

request
Aumentar uno tonoAumentar uno tono
Aumentar uno semi-tonoAumentar uno semi-tono
Disminuir uno semi-tonoDisminuir uno semi-tono
Disminuir uno tonoDisminuir uno semi-tono
LosAcordes
Buscar
auto avanzar rasgueos aumentar disminuir cambiar color esconder acordes gráficos
losacordes exhibir acordes losacordes youTube video losacordes ocultar tabs losacordes ir hacia arriba losacordes