Dream Theater

Início > Dream Thea... > acordes

Lines In The Sand Tablatura

Dream Theater

Dificultad:Ningún gradoNingún grado

tuner correct add songbook print version text version salvar en e-mail
acordesukuleletablaturabaixobateriaarmónicaflautacavacopiano Guitar Pro
acordes

Lines In The Sand

	  
     e      q       q+      e   e   q+          e   e   q+      e   e   q+ 
H|---C--||--C-------H---------------H-------|-----------H---------------H----| 
S|4:----||o---------X---------------X-------|-----------X---------------X----| 
T|4:----||o---------------------------------|--------------------------------| 
F|---X--||--X---------------X---X-----------|---X---X-----------X---X--------| 
 
                  _______________________________________________________ 
                  | 1. 
                  |   t t t t s  s  s  s  s  s  t t t t s  s  s  s  s  s 
H|----------------|-------------------------------------------------------|| 
S|-------%--------|------------------------------------------------------o|| 
T|----------------|---1-1-1-1-2--2--3--3--4--4--5-5-5-5-6--6--7--7--X--X-o|| 
F|----------------|-------------------------------------------------------|| 
 
 ___________________________________   ___________________________________ 
 | 2.                                  | 3. 
 |   s s s s s s s s s s s s s s s s   |  s s s s s s s s s s s s s s s s 
H|------------------------------------||-----------------------------------|| 
S|-----X-X---X-X---X---X-X-X-X-------o||------------------------------X-X-o|| 
T|---6-----5-----6---6---------5-6-6-o||--X-X-X-X-7-7-6-6-5-5-4-4-3-3-----o|| 
F|------------------------------------||-----------------------------------|| 
 
 __________________________________ 
 | 4. 
 |   q       q       q       e   e+      e   e   e   e   e   s s e   e 
H|---c-------r-------r-----------C---|-------R---R---R---R---R---R---R---| 
S|-----------e-------e-------F-------|-----------X---------------X-------| 
T|-----------s-------s---------------|-----------------------------------| 
F|---X-------t-------t-----------X---|-------X-------X----X--X-X-----X---| 
 
     e   e   e   s s s s s s e   e 
H|---R---R---R---R---R---R---R---R---|-----------| 
S|-----------X----(X)-(X)----X-------|-----%-----| 
T|-----------------------------------|-----------| 
F|-------X-----------X-----X-----X---|-----------| 
 
    e   e   e   e   s s s s s s e+      e   e   e   s s s s s s e   e 
H|--R---R---R---R---------------C---||------R---R---R---R---R---R---R--|-----| 
S|----------X-------X-X-X-X---------||o---------X----(X)-(X)----X------|--%--| 
T|--------------------------6-6-----||o--------------------------------|-----| 
F|------X-------X---------------X---||------X-----------X---X-X-----X--|-----| 
 
 ________________________________________________________________________ 
 | 1.                                    > >   > 
 |   e   e   e   e   e   s s e   e       s s s s s s s s s s s s e   e+ 
H|---R---R---R---R---R---R---R---R---|-------------------------------C---|| 
S|-----------X---------------X-------|---X-X(X)X------------------------o|| 
T|-----------------------------------|-----------5-5-5-5-6-6-6-6-7------o|| 
F|-------X-----------X-----X-----X---|-------------------------------X---|| 
 
 ________________________________________________________________________ 
 | 2.                                    >   > 
 |   e   e   e   s s s s s s e   s s     s s s s s s s s s s s s s s e+ 
H|---R---R---R---R---R---R---R-------|-------------------------------C---|| 
S|-----------X----(X)-(X)----X---X-X-|---X(X)-(X)-(X)-(X)X-X------------o|| 
T|-----------------------------------|-------6---7---7-------5-5-6-6----o|| 
F|-------X-----------X-----X---------|-------------------------------X---|| 
 
 _____________________________________ 
 | 3. 
 |   e   e   e   s s s s s s e   e+      e   e   e   e   e   e   q 
H|---R---R---R---R---R---R---R---C---|---------------------------C-------| 
S|-----------X----(X)-(X)----X-------|-----------F---X---X-------X-------| 
T|-----------------------------------|------x6-------6---6---7-----------| 
F|-------X-----------X-----X-----X---|-----------------------------------| 
 
     >     >   >   > > 
     s s s s s e   s q       q 
H|-----------r---------------C-------|-----------------|----------------| 
S|-----------e-----------------------|--------%--------|-------%--------| 
T|---5-5-5-5-s-----5-5---------------|-----------------|----------------| 
F|-----------r---------------X-------|-----------------|----------------| 
 
      >     >   >   > > 
      s s s s s e   s q            q+      q       h 
H|------------r---------------|----C---------------r--------------| 
S|3:----------e---------------|4:------------------e--------------| 
T|4:--5-5-5-5-s-5---5-5-------|4:------------------s--------------| 
F|------------t---------------|----X---------------t--------------| 
 
     e   e   e   e   e   e   e   e        q       q+      e   e   q+ 
H|-------------------------------C---||---C-------H---------------H-------| 
S|---X---X---X---X---X---X---X-------||o----------X---------------X-------| 
T|-----------------------------------||o----------------------------------| 
F|---X---X---X---X---X---X---X---X---||---X---------------X---X-----------| 
 
     e   e   q+      e   e   q+ 
H|-----------H---------------H-------|-----------------------| 
S|-----------X---------------X-------|-----------%-----------| 
T|-----------------------------------|-----------------------| 
F|---X---X-----------X---X-----------|-----------------------| 
 
 _______________________________________   __________________________________ 
 | 1.         3                    6      | 2. 
 |  e   e   s^s^s e   e   e   s^s^s^s^s^s |   q       q       q       e   e+ 
H|------O-----------------C---------------|---c-------r-------r-----------C--| 
S|------X---X-------------X---X-----------|-----------e-------e-------F------| 
T|------------5-X---------------5-6-6-7-7-|-----------s-------s--------------| 
F|--X-------P-----X---X-------------------|---X-------t-------t-----------X--| 
 
     e   e   e   e   e   s s e   e+      e   e   e   s s s s s s e   e 
H|-------B---B---B---B---B---B---B---|-------B---B---B---B---B---B---B---| 
S|-----------X---------------X-------|-----------X----(X)-(X)----X-------| 
T|-----------------------------------|-----------------------------------| 
F|-------X-----------X---X-X-----X---|-------X-----------X---X-X-----X---| 
 
                             >   >   >   > 
                             s s s s s s s s s s s s s s e+ 
H|-----------------------|-------------------------------C---| 
S|----------%------------|---X(X)-(X)-(X)-(X)X-X-------------| 
T|-----------------------|-------5---6---6-------5-5-6-6-----| 
F|-----------------------|-------------------------------X---| 
 
     e   e   e   s s s s s s e   e 
H||------B---B---B---B---B---B---B---|-----------------|----------------| 
S||o---------X----(X)-(X)----X-------|--------%--------|--------%-------| 
T||o---------------------------------|-----------------|----------------| 
F||------X-----------X---X-X-----X---|-----------------|----------------| 
 
 ________________________________________ 
 | 1.    6            6           6 
 |   s^s^s^s^s^s s^s^s^s^s^s s^s^s^s^s^s e   e 
H|-------------------------------------------C---|| 
S|---X-X-X-X-X-X-------------------------X------o|| 
T|---------------5-5-5-5-5-5-6-6-6-6-6-6--------o|| 
F|-------------------------------------------X---|| 
 
 ___________________________________ 
 | 2. 
 |  s s e   s s s s s s e   s s e+      e   e   e   s s s s s s e   e 
H|------O---------------O-------C---|-------B---B---B---B---B---B---B--|-----| 
S|--X-X-----X-X-X-X-X-X-----X-X-----|-----------X----(X)-(X)----X------|--%--| 
T|----------------------------------|----------------------------------|-----| 
F|------X---------------X-------X---|-------X-----------X---X-X-----X--|-----| 
 
     e   e   e   s s s s s s e   e+      e   e   e   e   e   e   q 
H|---B---B---B---B---B---B---B---C---|---------------------------C-------| 
S|-----------X----(X)-(X)----X-------|-------F---F---F---X---X---X-------| 
T|-----------------------------------|-------------------X---X-----------| 
F|-------X-----------X---X-X-----X---|-----------------------------------| 
 
     >     >   >   > > 
     s s s s s e   s q       q 
H|-----------r---------------C-------|-----------------|-----------------| 
S|-----------e-----------------------|--------%--------|--------%--------| 
T|---5-5-5-5-s-5---5-5---------------|-----------------|-----------------| 
F|-----------t---------------X-------|-----------------|-----------------| 
 
      >     >   >   > > 
      s s s s s e   s q           q+      q       h 
H|------------r---------------|---C---------------r---------------|| 
S|3:----------e---------------|4:-----------------e---------------|| 
T|4:--5-5-5-5-s-5---5-5-------|4:-----------------s---------------|| 
F|------------t---------------|---X---------------t---------------|| 
 

	  

No existe una video leccione para esta canción

request
LosAcordes
Buscar
auto avanzar rasgueos aumentar disminuir cambiar color esconder acordes gráficos
losacordes exhibir acordes losacordes youTube video losacordes ocultar tabs losacordes ir hacia arriba losacordes