Dream Theater

Início > Dream Thea... > acordes

Innocence Faded Tablatura

Dream Theater

Dificultad:Ningún gradoNingún grado

carlluz

tuner correct add songbook print version text version salvar en e-mail
acordesukuleletablaturabajobateríaarmónicaflautacavacopiano Guitar Pro
acordes

Innocence Faded

	  
C---------------------------------------------------------------------------
G---------------------------------------------------------------------------
D---------------------0-----0---------------------0--------------------0----
A---------2----------------------------2---------------------2--------------
E-2-2--0-----2-2--4-4---3-3----2--2--0---2-2--4-4---3--2-2-0---2-2-4-4---3-3
B---------------------------------------------------------------------------

C---------------------------------------------------------------------------
G---------------------------------------------------------------------------
D-0-------------------------------------------------------------------------
A---------2-----------------------------------------------------------------
E---2-2-0---2-2-0------5-7-5-7-7-5-7-5-3-0-----5-7--5-7-5-7--5-7-5-3-0---2--
B-----------------3-0~---------------------3-0-------------------------2----

C---------------------------------------------------------------------------
G--------------------------------------------------------4---2-4------------
D----------------------------------------------------------4-----4----------
A------------------------------------------------------2--------------------
E-3----3---5--5--7-7-0-3-3-2-3-3-5-5-7-7-0-3-3-2-3-3-5-------------2-3------
B---------------------------------------------------------------------------

C---------------------------------------------------------------------------
G---------------------------------------------------------------------------
D---------------------------------------------------------------------------
A---------------------------------------------------------------------------
E-3-3-3-3-3--3-5-0--------------5-5-7--5-7-5-7-5-7-5-3-0-------5-7-5-5-7-5--
B------------------6-5-3-0-3--0--------------------------3-1-0--------------

C---------------------------------------------------------------------------
G--------------------------------------------------------------4-----2------
D----------------------------------------------------------4-4---4----------
A-----------------2------------------------2---------5----------------------
E-5-3-0---0-2-2-0---2-2-4-4-4-3-3-3--2-2-0---2-2-4-4---3-2---------2---2----
B-------3-------------------------------------------------------------------

C---------------------------------------------------------------------------
G-------4-----2-------------4-----2-------4-----2-------------4-----2-------
D---4-4---4-----2-------4-4---4-------4-4---4-----2-------4-4---4-------4-4-
A---------------------------------------------------------------------------
E-2---------2-----2-3-2---------2---2---------2-----2-2-2---------2---2-----
B---------------------------------------------------------------------------

C---------------------------------------------------------------------------
G-4-4-----2---------------4-----2-------4-----2-----------4-------2---------
D-----4-----2---------4-4---4-------4-4---4-----2-----4-4---4-4-------4-----
A---------------------------------------------------------------------------
E-------2-----2-2-3-2---------2---2---------2-----2-2-----------2---2-------
B---------------------------------------------------------------------------

C---------------------------------------------------------------------------
G---4-----2---------------4-----2-------4-----2-------------4-----2---------
D-4---4-----2---------4-4---4-------4-4---4-----2-------4-4---4-------4-4---
A---------------------------------------------------------------------------
E-------2-----2-2-3-2---------2---2---------2-----2-2-2---------2---2-------
B---------------------------------------------------------------------------

C---------------------------------------------------------------------------
G-4-----2-------------4-----2-------4-----2-----------4----2--------4-----2-
D---4-----2-------4-4---4-------4-4---4-----2-----4-4---4-------4-4---4-----
A---------------------------------------------------------------------------
E-----2-----2-3-2---------2---2---------2-----2-2---------2---2---------2---
B---------------------------------------------------------------------------

C---------------------------------------------------------------------------
G-------------4-----2-------4-----2-------------4-----2-------4-----2-------
D-2-------4-4---4-------4-4---4-----2-------4-4---4-------4-4---4-----2-----
A---------------------------------------------------------------------------
E---2-3-2---------2---2---------2-----2-2-2---------2---2---------2-----2-3-
B---------------------------------------------------------------------------

C-------------------4-------------------------------------------------------
G-------4-----2---4---6-2---4-2-------------------------------4---2-4-------
D---4-4---4---------------4-----2---4-2-------------------------4-----4-----
A---------------------------------4-----2-0----------------2----------------
E-2---------2---2---------------------------4-2~--3~--3-5~--------------2---
B---------------------------------------------------------------------------

C---------------------------------------------------------------------------
G---------------------------------------------------------------------------
D---------------------------------------------------------------------------
A----------------------------------------2----------------------------------
E-3-3-3-3-3-3-3-3-5~--0-1-0----------5-5---5-7-5-7-5-7-5--3-0-------5-5-7-5-
B---------------------------3-0-3-0~--------------------------3-1-0---------

C---------------------------------------------------------------------------
G---------------------------------------------------------------------------
D---------------------------------------------------------------------------
A---------------------------------------------------------------------------
E-7-5-7-5-7-5-5-3-0---5-0~--0~--0~------------------------------------------
B-------------------3------------------------------------------------------- 
	  

No existe una video leccione para esta canción

request
LosAcordes
Buscar
auto avanzar rasgueos aumentar disminuir cambiar color esconder acordes gráficos
losacordes exhibir acordes losacordes youTube video losacordes ocultar tabs losacordes ir hacia arriba losacordes