Dream Theater

Início > Dream Thea... > acordes

Hells Kitchen Tablatura

Dream Theater

Dificultad:ExpertoExperto

tuner correct add songbook print version text version salvar en e-mail
acordesukuleletablaturabajobateríaarmónicaflautacavacopiano Guitar Pro
acordes

Hells Kitchen

	                                                                                 
E||------------------|------------------|------------------|------------------| 
B||------------------|------------------|------------------|------------------| 
G||------------------|------------------|------------------|------------------| 
D||------------------|------------------|------------------|------------------| 
A||------------------|------------------|------------------|------------------| 
E||------------------|------------------|------------------|------------------| 
 
 
------------------------------|---------------------------| 
------------------------------|---------------------------| 
----------------9~------------|--------------9~-----------| 
---------7~------------9~-----|---------------------------| 
--7---------------------------|---------------------------| 
------------------------------|---------------------------| 
 
 
                                                            
----------------------------|-----------------------------| 
----------------------------|-----------------------------| 
----------------------------|-----------------------------| 
----------------------------|----11~---------------7~-----| 
----7~---------------9~-----|-----------------------------| 
----------------------------|-----------------------------| 
 
 
                                                             
----------------------------|------------------------------| 
----------------------------|--------7~-----9~-----10~-----| 
---------------9~-----------|------------------------------| 
------9~--------------------|------------------------------| 
----------------------------|------------------------------| 
----------------------------|------------------------------| 
 
 
                                                                
------------------------------|-------------------------------| 
--12~-----------10~-----------|---------------10~-----12~-----| 
------------------------------|--7~---------------------------| 
------------------------------|-------------------------------| 
------------------------------|-------------------------------| 
------------------------------|-------------------------------| 
 
 
                                                                             
------------------------------------|----------------------------------17--| 
--14~-----12~-----14b---14--12~-----|--17------17~-------------17--19------| 
------------------------------------|----------------------19--------------| 
------------------------------------|--------------------------------------| 
------------------------------------|--------------------------------------| 
------------------------------------|--------------------------------------| 
 
 
                                                                                
----------------------------------|-----------------------------------17------| 
--21b-----------21r-----21----17--|--15~---------15h17h15/14----15--------15--| 
----------------------------------|-------------------------------------------| 
----------------------------------|-------------------------------------------| 
----------------------------------|-------------------------------------------| 
----------------------------------|-------------------------------------------| 
 
 
                                                                     
--19~-----17~---------------------|--19~-----17~-----------19------| 
------------------17~---------17--|------------------17--------17--| 
----------------------------------|--------------------------------| 
----------------------------------|--------------------------------| 
----------------------------------|--------------------------------| 
----------------------------------|--------------------------------| 
 
 
                                                                           
--19b---------19b---19r-19--17~-----|------------------------------------| 
------------------------------------|--15h-17--15----14~---15~---17~-15--| 
------------------------------------|------------------------------------| 
------------------------------------|------------------------------------| 
------------------------------------|------------------------------------| 
------------------------------------|------------------------------------| 
 
 
                                            
------------------------------------------| 
--17b-------17r---17--17~-----15h14-15-17-| 
------------------------------------------| 
------------------------------------------| 
------------------------------------------| 
------------------------------------------| 
 
 
                                                                 
---------------------------------------------------------------| 
--15b-----15-14----14--14r14-12-14--15-14-12-14-15-14-12-14-12-| 
----------------16---------------------------------------------| 
---------------------------------------------------------------| 
---------------------------------------------------------------| 
---------------------------------------------------------------| 
 
 
                                                                        
----------------------------------------------------------------------| 
--14-15-17-17-17-17-17-17-14-15-17-17-17-15-14-14-15-17-------17~-----| 
--------------------------------------------------------16b-----------| 
----------------------------------------------------------------------| 
----------------------------------------------------------------------| 
----------------------------------------------------------------------| 
 
 
                                                   
-----------------------------------------17-19b--| 
--------------------------------------19---------| 
--14-16-14~------------------16-18-19------------| 
-----------------------16-19---------------------| 
--------------------17---------------------------| 
-------------------------------------------------| 
 
 
                                                    
-------20-19b----19-17-19~------------------------| 
--------------------------------------------17----| 
--------------------------------------16----------| 
-----------------------------------14----14----14/| 
-------------------------------14-----------------| 
--------------------------------------------------| 
 
 
                                                                                
-----19h16---------------------------------------------------------16-17-17b--| 
-----------17--------------------------------------15-17b----17-19------------| 
--15----------16-x-x-------------16h17----16h17-18---------x------------------| 
---------------------19h18-19-19-------19-------------------------------------| 
------------------------------------------------------------------------------| 
------------------------------------------------------------------------------| 
 
 
                                                                          
------17-16-17~---16----16-17-16----------16-17-16----------16-17-16----| 
---------------------19----------19-17-19----------19-17-19----------19-| 
------------------------------------------------------------------------| 
------------------------------------------------------------------------| 
------------------------------------------------------------------------| 
------------------------------------------------------------------------| 
 
 
                                                                                 
--16-19-16------------15-17-15----------16-19-17-16----------------------------- 
-----------19-17---19----------19-17-19-------------19-17---------------------17 
-----------------x----------------------------------------x-19-19-18-16-18-19--- 
-------------------------------------------------------------------------------- 
-------------------------------------------------------------------------------- 
-------------------------------------------------------------------------------- 
 
 
                                                                       
--------------------------------|------------------------------------| 
--16~---------17--14------------|--16~---------17-19-17~---------16--| 
--------------------------------|------------------------------------| 
--------------------------------|------------------------------------| 
--------------------------------|------------------------------------| 
--------------------------------|------------------------------------| 
 
 
                                                           
---------------------------------------------------------| 
--16----14--14----16-14/12-10--12-10/8-7--8-7/5-3--5-3-2-| 
---------------------------------------------------------| 
---------------------------------------------------------| 
---------------------------------------------------------| 
---------------------------------------------------------| 
 
 
                                                                   
-----------------------------------------4-2-0-4-2-0-4-2-0-2-4/--| 
--0--4-2-0-4-2-0-4-2-0-4-2-0-4-2-0-4-2-0-------------------------| 
-----------------------------------------------------------------| 
-----------------------------------------------------------------| 
-----------------------------------------------------------------| 
-----------------------------------------------------------------| 
 
 
                                                                                 
--------------|--------------|--------------|--------------||------------------| 
--------------|--------------|--------------|--------------||------------------| 
--0h-----7----|--0h-----7----|--------------|--------------||*--------2--4--2b-| 
--------------|--------------|--0h-----7----|--0h-----7----||*-----2-----------| 
--------------|--------------|--------------|--------------||------------------| 
--------------|--------------|--------------|--------------||---0--------------| 
 
 
                                                                         
-----------------|-----------------|-----------------|-----------------| 
-----------------|-----------------|-----------------|-----------------| 
--------2--4--2b-|--------2--4--2b-|--------2--4--2b-|--------2--4--2b-| 
-----2-----------|-----2-----------|-----2-----------|-----2-----------| 
-----------------|-----------------|-----------------|-----------------| 
--0--------------|--0--------------|--0--------------|--2--------------| 
 
 
                                                                           
-----------------|-----------------|------------------||-----------------| 
-----------------|-----------5-----|-----------5------||-----------------| 
--------2--4--2b-|--------4-----4--|--------4-----4--*||--------2--4--2--| 
-----2-----------|-----7-----------|-----7-----------*||-----2-----------| 
-----------------|--5--------------|--5---------------||-----------------| 
--2--------------|-----------------|------------------||--0--------------| 
 
 
                                                                      
-----------------|-----------------|--------------|-----------------| 
-----------------|-----------------|--------------|-----------------| 
--------2--4--2--|--------2--4--2--|--------2--4--|--------2--4--2b-| 
-----2-----------|-----2-----------|-----2--------|-----2-----------| 
-----------------|-----------------|--------------|-----------------| 
--0--------------|--0--------------|--0-----------|--2--------------| 
 
 
                                                                              
-----------------|-----------------|--------------||------------------------| 
-----------------|-----------5-----|-----------5--||------------------------| 
--------2--4--2b-|--------4-----4--|--------4-----||*--------2--4--2-----4--| 
-----2-----------|-----7-----------|-----7--------||*-----2-----------2-----| 
-----------------|--5--------------|--5-----------||------------------------| 
--2--------------|-----------------|--------------||---0--------------------| 
 
 
                                                                           
-----------------------|-----------------------|------------------------|| 
-----------------------|-----------------------|-----------5------------|| 
--------2--4--2-----4--|--------2--4--2-----4--|--------4-----4--------*|| 
-----2-----------2-----|-----2-----------2-----|-----7-----------7-----*|| 
-----------------------|-----------------------|--5-----------------5---|| 
--0--------------------|--2--------------------|------------------------|| 
 
 
                                                               
------------------------------|------------------------------| 
------------0-----3-----------|----------3-----------------0-| 
------2---2---1-2---2-1-2-1---|------1-2---2-1-2-1---2---2---| 
--0-2---2-------------------2-|--0-2---------------2---2-----| 
------------------------------|------------------------------| 
------------------------------|------------------------------| 
 
 
                                                                       
------------------------------|-----------------------------------12-| 
------------0-----3-----------|------------0----------------12-15----| 
------2---2---1-2---2-1-2-1---|------2---2---------14----14----------| 
--0-2---2-------------------2-|--0-2---2-----12-14----14-------------| 
------------------------------|--------------------------------------| 
------------------------------|--------------------------------------| 
 
 
                                                               
------------------------------|------------------------------| 
------------0-----3-----------|----------3-----------------0-| 
------2---2---1-2---2-1-2-1---|------1-2---2-1-2-1---2---2---| 
--0-2---2-------------------2-|--0-2---------------2---2-----| 
------------------------------|------------------------------| 
------------------------------|------------------------------| 
 
 
                                
------------------------------| 
------------0-----3-----------| 
------2---2---1-2---2-1-2-1---| 
--0-2---2-------------------2-| 
------------------------------| 
------------------------------| 
 
 
                                                                          
------------------------------------------------------------------------| 
--5---2-3-2-------------------------------------------------------------| 
----3-------4-3-4-3-1---------------------------------------------------| 
----------------------4-2-0---------2-----------------0-----------------| 
----------------------------4-2-1-----1-4-5-4-2-1--------4--2--1--------| 
----------------------------------4---------------4-2-------------4--2--| 
 
 
                                                           
--6------4------7------4------|--6------4------7----4----| 
------------------------------|--------------------------| 
--3------1------4------1------|--3------1------4----1----| 
------------------------------|--------------------------| 
------------------------------|--------------------------| 
------------------------------|--------------------------| 
 
 
                                                           
--6------4------7------4------|--6------4------7----4----| 
------------------------------|--------------------------| 
--3------1------4------1------|--3------1------4----1----| 
------------------------------|--------------------------| 
------------------------------|--------------------------| 
------------------------------|--------------------------| 
 
 
                                                        
--6------7------9------9r-----|--6----7----9----11----| 
------------------------------|-----------------------| 
--3------4------6------6r-----|--3----4----6----8-----| 
------------------------------|-----------------------| 
------------------------------|-----------------------| 
------------------------------|-----------------------| 
 
 
                                                                 
--6------7------9------11------|--5------7------9------11------| 
-------------------------------|-------------------------------| 
--3------4------6------8-------|--6------8------9------11------| 
-------------------------------|-------------------------------| 
-------------------------------|-------------------------------| 
-------------------------------|-------------------------------| 
 
 
                                                                   
--12b-----12------11------9------|--8------------------------8-9-| 
--9b------9-------7-------5------|--9----------9--9----------4-5-| 
---------------------------------|-------------8--8--------------| 
---------------------------------|-------------------------------| 
---------------------------------|-------------------------------| 
---------------------------------|-------------------------------| 
 
 
                                                                
--11------9------7------5------|--7b-----7------5-------------| 
--7-------5------4------2------|--4b-----4------2------5------| 
-------------------------------|-----------------------2------| 
-------------------------------|------------------------------| 
-------------------------------|------------------------------| 
-------------------------------|------------------------------| 
 
 
                                                           
--7------5------8------5------|--7------5------8----5----| 
------------------------------|--------------------------| 
--4------2------5------2------|--4------2------5----2----| 
------------------------------|--------------------------| 
------------------------------|--------------------------| 
------------------------------|--------------------------| 
 
 
                                                           
--7------5------8------5------|--7------5------8----5----| 
------------------------------|--------------------------| 
--4------2------5------2------|--4------2------5----2----| 
------------------------------|--------------------------| 
------------------------------|--------------------------| 
------------------------------|--------------------------| 
 
 
                                                                       
--19------20------22------22r-----|--19------20------22/-----15------| 
----------------------------------|----------------------------------| 
--16------17------19------19r-----|--16------17------19/-----12------| 
----------------------------------|----------------------------------| 
----------------------------------|----------------------------------| 
----------------------------------|----------------------------------| 
 
 
                               
----------------------------|| 
----------------------------|| 
----------------------------|| 
--12------------------------|| 
----------------------------|| 
----------------------------|| 
 
ThAt'S iT!!! RaTe Me!!!!!! 
 

	  

No existe una video leccione para esta canción

request
LosAcordes
Buscar
auto avanzar rasgueos aumentar disminuir cambiar color esconder acordes gráficos
losacordes exhibir acordes losacordes youTube video losacordes ocultar tabs losacordes ir hacia arriba losacordes