Dragonforce

Início > Dragonforc... > acordes

Trhongh The Fire And Flames Tablatura

Dragonforce

Dificultad:ExpertoExperto

Rockdrigo.d.e.p

tuner correct add songbook print version text version salvar en e-mail
acordesukuleletablaturabajobateriaarmónicaflautacavacopiano Guitar Pro
acordes

Trhongh The Fire And Flames

	  E||---------------------|--------------------||-------------------| 
B||---------------------|--------------------||-------------------| 
G||---------------------|-------------------*||-------------------| 
D||--5------------------|-------------------*||--3----------------| 
A||--3------------------|--------------------||--1----------------| 
E||---------------------|--------------------||-------------------| 

-------------------|---------------------|----------------------| 
-------------------|---------------------|----------------------| 
-------------------|---------------------|----------------------| 
--L----------------|---------------------|----------------------| 
--L----------------|--6------------------|--5----5----5---------| 
-------------------|--4------------------|--3----3----3---------| 

   PM PM PM PM PM PM PM PM PM PM PM PM PM PM PM PM  
--------------------------------------------------| 
--16-16-16-16-13-13-16-16-16-16-13-16-16-16-13-13-| 
--------------------------------------------------| 
--------------------------------------------------| 
--------------------------------------------------| 
--------------------------------------------------| 

   PM PM PM PM PM PM PM PM PM PM PM PM PM PM PM PM  
--------------------------------------------------| 
--16-16-16-16-13-13-16-16-16-16-13-13-16-16-13-13-| 
--------------------------------------------------| 
--------------------------------------------------| 
--------------------------------------------------| 
--------------------------------------------------| 

   PM PM PM PM PM PM PM PM PM PM PM PM PM PM PM PM  
--------------------------------------------------| 
--20-20-20-20-13-13-20-20-20-20-13-20-20-20-13-13-| 
--------------------------------------------------| 
--------------------------------------------------| 
--------------------------------------------------| 
--------------------------------------------------| 

   PM PM PM PM PM PM PM PM PM PM PM PM PM PM PM PM  
--------------------------------------------------| 
--20-20-20-20-13-13-20-20-20-20-13-13-20-20-13-13-| 
--------------------------------------------------| 
--------------------------------------------------| 
--------------------------------------------------| 
--------------------------------------------------| 

   PM PM PM PM PM PM PM PM PM PM PM PM PM PM PM PM  
--------------------------------------------------| 
--18-18-18-18-13-13-18-18-18-18-13-13-18-18-13-13-| 
--------------------------------------------------| 
--------------------------------------------------| 
--------------------------------------------------| 
--------------------------------------------------| 

   PM PM PM PM PM PM PM PM PM PM PM PM PM PM PM PM  
--------------------------------------------------| 
--18-18-18-18-13-13-18-18-18-18-13-13-18-18-13-13-| 
--------------------------------------------------| 
--------------------------------------------------| 
--------------------------------------------------| 
--------------------------------------------------| 

                                             /5   -\5       -\5      
--11p-8----8h-9p-8---11p-8----8h-9p-8---|--------------------------| 
--------9----------9-------9----------9-|--------------------------| 
----------------------------------------|--<>2----L~--------L~--L--| 
----------------------------------------|--------------------------| 
----------------------------------------|--------------------------| 
----------------------------------------|--------------------------| 

---------------------|-------------------|---------------------| 
---------------------|-------------------|---------------------| 
---------------------|-------------------|---------------------| 
--5------------------|-------------------|---------------------| 
--3------------------|-------------------|--6------------------| 
---------------------|-------------------|--4------------------| 

-------------------|---------------------|-------------------| 
-------------------|---------------------|-------------------| 
-------------------|---------------------|-------------------| 
-------------------|--3------------------|-------------------| 
-------------------|--1------------------|-------------------| 
-------------------|---------------------|-------------------| 

            PM                                 
-----------------------|---------------------| 
-----------------------|---------------------| 
-----------------------|---------------------| 
--3----3----3--3----3--|--5------------------| 
--1----1----1--1----1--|--3------------------| 
-----------------------|---------------------| 

  PM PM PM PM PM PM PM PM PM PM PM PM PM PM PM PM   
--------------------------------------------------| 
--------------------------------------------------| 
--------------------------------------------------| 
--------------------------------------------------| 
--3--3--3--3--6--3--3--3--5--3--3--3--6--3--3--3--| 
--------------------------------------------------| 

  PM PM PM PM PM PM PM PM PM             
---------------------------------------| 
---------------------------------------| 
---------------------------------------| 
-----------------------------5--Ls--3--| 
--3--3--3--3--6--3--3--3--3--3--Ls--1--| 
---------------------------------------| 

     PM PM PM PM PM PM PM PM PM PM PM PM PM PM   
-----------------------------------------------| 
-----------------------------------------------| 
-----------------------------------------------| 
-----------------------------------------------| 
--6--------------------------------------------| 
--4--4--4--4--4--4--4--4--4--4--4--4--4--4--4--| 

  PM PM PM PM PM PM PM PM PM PM PM PM PM PM PM PM   
--------------------------------------------------| 
--------------------------------------------------| 
--------------------------------------------------| 
--------------------------------------------------| 
--------------------------------------------------| 
--4--4--4--4--4--4--4--4--4--4--4--4--4--4--4--4--| 

  PM            PM PM PM PM PM PM    PM            PM PM PM PM PM PM    
----------------------------------|----------------------------------| 
----------------------------------|----------------------------------| 
----------------------------------|----------------------------------| 
----------------------------------|----------------------------------| 
--8--8----8--8--------------------|--8--8----8--8--------------------| 
--6--6----6--6--6--6--6--6--6--6--|--6--6----6--6--6--6--6--6--6--6--| 

  PM PM PM PM PM PM PM PM PM PM PM PM                    PM PM PM   
--------------------------------------|---------------------------| 
--------------------------------------|---------------------------| 
--------------------------------------|-----5s----3s--5-----------| 
--5--5--------------5--5--------------|-----x---------------5--3--| 
--3--3--3--3--3--3--3--3--3--3--3--3--|--3--3S----1S--3--1--3--1--| 
--------------------------------------|---------------------------| 
   
------------------------------|--6------------------------| 
------------------6-----6--8--|-----8--6-----6--8--<>8----| 
--5-5-5-5-8-8-8-8----8--------|-----------8---------------| 
------------------------------|---------------------------| 
------------------------------|---------------------------| 
------------------------------|---------------------------| 

  PM PM PM PM PM PM PM PM PM PM PM PM PM PM PM   
-----------------------------------------------| 
-----------------------------------------------| 
-----------------------------------------------| 
-----------------------------------------------| 
--3--3--3--5--3--3--3--6--3--3--3--5--3--3--3--| 
-----------------------------------------------| 

  PM PM PM PM PM PM PM PM PM PM PM PM PM PM PM   
-----------------------------------------------| 
-----------------------------------------------| 
-----------------------------------------------| 
-----------------------------------------------| 
--3--3--3--5--3--3--3--6--3--3--3--5--3--3--3--| 
-----------------------------------------------| 

  PM PM PM PM PM    PM             PM PM PM PM PM                     
--------------------------------|---------------------------------| 
--------------------------------|---------------------------------| 
--------------------------------|---------------------------------| 
-----------------6-----<>6s--8--|-----------------<>6p--5--6s--8--| 
--5--5--5--5--5-----5-----------|--5--5--5--5--5------------------| 
--------------------------------|---------------------------------| 

      PM PM PM PM PM PM PM PM PM PM PM PM PM PM                                
------------------------------------------------|----------------------------| 
------------------------------------------------|----------------------------| 
------------------------------------------------|----------------------------| 
--10--------------------------------------------|-----10-----10--------------| 
---8--8--8--8--8--8--8--8--8--8--8--8--8--8--8--|--8---8------8-----8-----6--| 
------------------------------------------------|-------------------6-----4--| 

       PM  PM      PM  PM               PM  PM      PM  PM         
--------------------------------|--------------------------------| 
--13----------11----------------|--13----------11----------------| 
------10--10------10--10--10----|------10--10------10--10--10----| 
--------------------------------|--------------------------------| 
--------------------------------|--------------------------------| 
--------------------------------|--------------------------------| 

  tr                     tr                     TP            TP     
----------------------|----------------------|--8------------10----| 
----------------------|----------------------|---------------------| 
--5(8)----------------|--5(8)----------------|---------------------| 
----------------------|----------------------|---------------------| 
----------------------|----------------------|---------------------| 
----------------------|----------------------|---------------------| 

   TP           TP       TP                                                  
--11------------8----|--10----------------|----------------------| 
---------------------|--------------------|---/x/----------------| 
---------------------|--------------------|----------------------| 
---------------------|--------------------|----------------------| 
---------------------|--------------------|----------------------| 
---------------------|--------------------|----------------------| 

                                    PM PM                         
-------------------|----------------------|-------------------| 
-------------------|----------------------|-------------------| 
-------------------|----------------------|-------------------| 
--8----------------|----------------------|-------------------| 
--6----------------|--8------------10--8--|--6----------------| 
-------------------|--6-------------8--6--|--4----------------| 

  PM PM PM    PM    PM              PM PM    PM PM           
------------------------------|---------------------------| 
------------------------------|---------------------------| 
------------------------------|--5--------5--------3s--5--| 
-----------------3-----<>5----|-----5--5-----5--5---------| 
--3--3--3--6--3-----3---------|---------------------------| 
------------------------------|---------------------------| 

     PM PM    PM PM >           PM PM PM PM PM PM PM PM PM PM PM PM PM PM   
--------------------------|-----------------------------------------------| 
--------------------------|-----------------------------------------------| 
--3--------3--------3--3--|-----------------------------------------------| 
-----3--3-----3--3--------|-----------------------------------------------| 
--------------------------|--6--------------------------------------------| 
--------------------------|--4--4--4--4--4--4--4--4--4--4--4--4--4--4--4--| 

  PM PM PM PM PM PM PM PM PM PM PM PM PM PM PM PM                 PM PM    
--------------------------------------------------|---------------------| 
--------------------------------------------------|---------------------| 
--------------------------------------------------|---------------------| 
--------------------------------------------------|--5------------5--3--| 
--------------------------------------------------|--3------------3--1--| 
--4--4--4--4--4--4--4--4--4--4--4--4--4--4--4--4--|---------------------| 

                         PM PM    PM PM PM PM                             
-------------------|--------------------------|-------------------| 
-------------------|--------------------------|-------------------| 
-------------------|--------------------------|-------------------| 
-------------------|--5--5--5--5--5--5--3--5--|--8----------------| 
--6----------------|--3--3--3--3--3--3--1--3--|--6----------------| 
--4----------------|--------------------------|-------------------| 

      PM PM PM PM PM PM PM PM PM PM PM PM PM PM   
------------------------------------------------| 
------------------------------------------------| 
------------------------------------------------| 
--10--------------------------------------------| 
---8--8--8--8--8--8--8--8--8--8--8--8--8--8--8--| 
------------------------------------------------| 

      PM PM PM PM PM PM PM PM PM PM PM PM PM PM   
------------------------------------------------| 
------------------------------------------------| 
------------------------------------------------| 
--10--------------------------------------------| 
---8--8--8--8--8--8--8--8--8--8--8--8--8--8--8--| 
------------------------------------------------| 
                                                       *pick scrape    
     PM PM PM PM PM PM PM PM PM PM PM PM PM PM                                    
-----------------------------------------------|-------x/------------| 
-----------------------------------------------|---------------------| 
-----------------------------------------------|---------------------| 
-----------------------------------------------|---------------------| 
--8--------------------------------------------|--8------------------| 
--6--6--6--6--6--6--6--6--6--6--6--6--6--6--6--|--6------------------| 
           
-------------------|-------------------|-------------------|-------------------| 
-------------------|-------------------|-------------------|-------------------| 
-------------------|-------------------|-------------------|-------------------| 
-------------------|-------------------|--5----------------|--L----------------| 
--6----------------|--L----------------|--3----------------|--L----------------| 
--4----------------|--L----------------|-------------------|-------------------| 

     PM PM PM PM PM PM PM PM PM PM PM PM PM PM     
-----------------------------------------------| 
-----------------------------------------------| 
-----------------------------------------------| 
--3--------------------------------------------| 
--1--1--1--1--1--1--1--1--1--1--1--1--1--1--1--| 
-----------------------------------------------| 

  PM PM PM PM PM PM PM PM PM PM PM PM PM PM PM PM                                      
--------------------------------------------------|-------------------| 
--------------------------------------------------|-------------------| 
--------------------------------------------------|-------------------| 
--------------------------------------------------|-------------------| 
--1--1--1--1--1--1--1--1--1--1--1--1--1--1--1--1--|--5----------------| 
--------------------------------------------------|--3----------------| 

  T       T       T        T                                                             
-----------------------------------|-------------------|-------------------| 
-----------------------------------|-------------------|-------------------| 
--7-3-0-3-8-3-0-3-8-3-0-3-10-3-0-3-|-------------------|-------------------| 
-----------------------------------|-------------------|-------------------| 
-----------------------------------|--6----------------|--L----------------| 
-----------------------------------|--4----------------|--L----------------| 
     
-------------------|-------------------| 
-------------------|-------------------| 
-------------------|-------------------| 
--5----------------|--L----------------| 
--3----------------|--L----------------| 
-------------------|-------------------| 

     PM PM PM PM PM > PM PM PM PM > PM PM PM                               
---------------------------------------------|---------------------| 
---------------------------------------------|---------------------| 
---------------------------------------------|---------------------| 
--3------------------------------------------|--3------------------| 
--1--1--1--1--1--1--1-1--1--1--1--1-1--1--1--|--1------------------| 
---------------------------------------------|---------------------| 

                                                  PM  PM             
-------------------------------|--------------------------------| 
-------------------------------|--------------------------------| 
--/12--12----10--12--10--8--8--|--/12--12----10--12--13--/15----| 
-------------------------------|--------------------------------| 
-------------------------------|--------------------------------| 
-------------------------------|--------------------------------| 
          
-------------------------------------------|-------------------------------| 
-------------------------------------------|-------------------------------| 
--/12----12--10-10-12-12-13-13-15-15-12-12-|--15--17S--19--<>15--L~--------| 
-------------------------------------------|-------------------------------| 
-------------------------------------------|-------------------------------| 
-------------------------------------------|-------------------------------| 
  
----------------------------11s--|--15------15--16-----/18--16p-15-----| 
------------------------11-------|------16-------------------------16--| 
--/12--12-----------12-----------|-------------------------------------| 
-------------13--L---------------|-------------------------------------| 
---------------------------------|-------------------------------------| 
---------------------------------|-------------------------------------| 
  
--/23--23s--18s--23--23s--18s--23s--18--| 
----------------------------------------| 
----------------------------------------| 
----------------------------------------| 
----------------------------------------| 
----------------------------------------| 

   T         T       T       T                T      
--18(16)----18(15)--18(16)--18(16)--15S--11--15--| 
-------------------------------------------------| 
-------------------------------------------------| 
-------------------------------------------------| 
-------------------------------------------------| 
-------------------------------------------------| 

                  PM PM PM PMPM PM  PM PM                                        
-----------------------------------------|----------------------------------| 
-----------------------------------------|----------------------------------| 
--/12--12----10--10-12-12-13-8--8--------|--/12--12----10--/12--/13--/15----| 
-----------------------------------10-10-|----------------------------------| 
-----------------------------------------|----------------------------------| 
-----------------------------------------|----------------------------------| 

   tr          tr            tr                                          
--------------------------------------|--/11------11-------------------| 
--16(11)------------------------------|--------------------------------| 
--------------15(13)--13----15(12)----|-------12------/<>15~--L--------| 
--------------------------------------|--------------------------------| 
--------------------------------------|--------------------------------| 
--------------------------------------|--------------------------------| 

----------------------------------|----------------------------------| 
----------------------------------|--------------------15--16--16----| 
--/15--15----13--15--13S--12------|--/15--15----13h-15---------------| 
------------------------------13--|----------------------------------| 
----------------------------------|----------------------------------| 
----------------------------------|----------------------------------| 


   T      T      T          T      T      T          T               
--23p-18-23p-18-23p-18p-15-23p-18-23p-18-23p-18p-15-23(18)----| 
--------------------------------------------------------------| 
--------------------------------------------------------------| 
--------------------------------------------------------------| 
--------------------------------------------------------------| 
--------------------------------------------------------------| 

                      |-----3-----|                                      
--/16-16-16--/18----/16----15----------|--------------------------| 
---------------------------------15----|--<>16~----L\-------------| 
---------------------------------------|--------------------------| 
---------------------------------------|--------------------------| 
---------------------------------------|--------------------------| 
---------------------------------------|--------------------------| 

                           PM PM PM PM PM PM    PM PM PM PM PM PM PM PM    
-------------------|-------------------------|--------------------------| 
-------------------|-------------------------|--------------------------| 
-------------------|-------------------------|--------------------------| 
-------------------|--5----------------------|--------------------------| 
-------------------|--3----3--3--3--3--3--3--|--3--3--3--3--3--3--3--3--| 
-------------------|-------------------------|--------------------------| 

     PM PM PM PM PM PM PM    PM PM PM PM PM PM PM PM   
--------------------------|--------------------------| 
--------------------------|--------------------------| 
--------------------------|--------------------------| 
--------------------------|--------------------------| 
--6-----------------------|--------------------------| 
--4--4--4--4--4--4--4--4--|--4--4--4--4--4--4--4--4--| 

     PM PM PM PM PM PM PM       PM PM PM PM PM PM PM                            
--------------------------|--------------------------|---------------------| 
--------------------------|--------------------------|---------------------| 
--------------------------|--------------------------|---------------------| 
--3-----------------------|--3-----------------------|--5------------------| 
--1--1--1--1--1--1--1--1--|--1--1--1--1--1--1--1--1--|--3------------------| 
--------------------------|--------------------------|---------------------| 

    \1                  PM PM PM PM PM PM PM PM PM PM PM PM PM PM PM PM    
---------------------|--------------------------------------------------| 
---------------------|--------------------------------------------------| 
--<>5----------------|--------------------------------------------------| 
--<>5----------------|--------------------------------------------------| 
---------------------|--3--3--3--3--6--3--3--3--5--3--3--3--6--3--3--3--| 
---------------------|--------------------------------------------------| 

  PM PM PM PM PM PM PM PM PM             
---------------------------------------| 
---------------------------------------| 
---------------------------------------| 
--------------------------5--5--Ls--3--| 
--3--3--3--3--6--3--3--3--3--3--Ls--1--| 
---------------------------------------| 

     PM PM PM PM PM PM PM PM PM PM PM PM PM PM    
-----------------------------------------------| 
-----------------------------------------------| 
-----------------------------------------------| 
-----------------------------------------------| 
--6--------------------------------------------| 
--4--4--4--4--4--4--4--4--4--4--4--4--4--4--4--| 

  PM PM PM PM PM PM PM PM PM PM PM PM PM PM PM PM                                 
--------------------------------------------------|----------------------------| 
--------------------------------------------------|----------------------------| 
--------------------------------------------------|----------------------------| 
--------------------------------------------------|--3--3----1--3--------------| 
--------------------------------------------------|--1--1----1--1--1-1-1-1-1-1-| 
--4--4--4--4--4--4--4--4--4--4--4--4--4--4--4--4--|----------------------------| 
  
----------------------------|-----------------------------| 
----------------------------|-----------------------------| 
----------------------------|-----------------------------| 
--3--3----1--3--------------|--5--5--5------5--5--5-5-5-5-| 
--1--1----1--1--1-1-1-1-1-1-|--3--3--3--3-3-3--3--3-3-3-3-| 
----------------------------|-----------------------------| 

              PM PM PM   NH           PM  PM      PM  PM          
------------------------------|--------------------------------| 
------------------------------|--13----------11----------------| 
-----------------------<>5----|------10--10------10--10--10----| 
--5----5----3-3--3--1---------|--------------------------------| 
--3----3----1-----------------|--------------------------------| 
------------------------------|--------------------------------| 

       PM  PM      PM  PM             
--------------------------------| 
--13----------11----------------| 
------10--10------10--10--10----| 
--------------------------------| 
--------------------------------| 
--------------------------------| 

   T            T            T            T                                           
-----------------------------------------------------|-------------------| 
--11p-8p-4h-8h-11p-8p-4h-8h-11p-8p-4h-8h-11p-8p-4h-8-|-------------------| 
-----------------------------------------------------|-------------------| 
-----------------------------------------------------|-------------------| 
-----------------------------------------------------|-------------------| 
-----------------------------------------------------|-------------------| 

  TP            TP       TP           TP       TP                           
--8------------10----|--11------------8----|--10----------------| 
---------------------|---------------------|--------------------| 
---------------------|---------------------|--------------------| 
---------------------|---------------------|--------------------| 
---------------------|---------------------|--------------------| 
---------------------|---------------------|--------------------| 

   *pick scrape down neck, second time                      
--------------------------------------|-------------------| 
---x\---------------------------------|-------------------| 
--------------------------------------|-------------------| 
--------------------------------------|--8----------------| 
--------------------------------------|--6----------------| 
--------------------------------------|-------------------| 

                PM PM                        PM PM PM    PM    PM             
----------------------|-------------------|------------------------------| 
----------------------|-------------------|------------------------------| 
----------------------|-------------------|------------------------------| 
----------------------|-------------------|-----------------3-----<>5----| 
--8------------10--8--|--6----------------|--3--3--3--6--3-----3---------| 
--6-------------8--6--|--4----------------|------------------------------| 

     PM PM    PM PM              PM PM    PM PM >        
---------------------------|--------------------------| 
---------------------------|--------------------------| 
--5--------5--------3s--5--|--3--------3--------3--3--| 
-----5--5-----5--5---------|-----3--3-----3--3--------| 
---------------------------|--------------------------| 
---------------------------|--------------------------| 

     PM PM PM PM PM PM PM PM PM PM PM PM PM PM   
-----------------------------------------------| 
-----------------------------------------------| 
-----------------------------------------------| 
-----------------------------------------------| 
--6--------------------------------------------| 
--4--4--4--4--4--4--4--4--4--4--4--4--4--4--4--| 

  PM PM PM PM PM PM PM PM PM PM PM PM PM PM PM PM                 PM PM    
--------------------------------------------------|---------------------| 
--------------------------------------------------|---------------------| 
--------------------------------------------------|---------------------| 
--------------------------------------------------|--5------------5--3--| 
--------------------------------------------------|--3------------3--1--| 
--4--4--4--4--4--4--4--4--4--4--4--4--4--4--4--4--|---------------------| 

                         PM PM    PM PM PM PM                                      
-------------------|--------------------------|-------------------| 
-------------------|--------------------------|-------------------| 
-------------------|--------------------------|-------------------| 
-------------------|--5--5--5--5--5--5--3--5--|--8----------------| 
--6----------------|--3--3--3--3--3--3--1--3--|--6----------------| 
--4----------------|--------------------------|-------------------| 

      PM PM PM PM PM PM PM PM PM PM PM PM PM PM      
------------------------------------------------| 
------------------------------------------------| 
------------------------------------------------| 
--10--------------------------------------------| 
---8--8--8--8--8--8--8--8--8--8--8--8--8--8--8--| 
------------------------------------------------| 

      PM PM PM PM PM PM PM PM PM PM PM PM PM PM    
------------------------------------------------| 
------------------------------------------------| 
------------------------------------------------| 
--10--------------------------------------------| 
---8--8--8--8--8--8--8--8--8--8--8--8--8--8--8--| 
------------------------------------------------| 

                                                       *pick scrape    
     PM PM PM PM PM PM PM PM PM PM PM PM PM PM                                    
-----------------------------------------------|-------x\------------| 
-----------------------------------------------|---------------------| 
-----------------------------------------------|---------------------| 
-----------------------------------------------|---------------------| 
--8--------------------------------------------|--8------------------| 
--6--6--6--6--6--6--6--6--6--6--6--6--6--6--6--|--6------------------| 
             
-------------------|-------------------|-------------------|-------------------| 
-------------------|-------------------|-------------------|-------------------| 
-------------------|-------------------|-------------------|-------------------| 
-------------------|-------------------|--5----------------|--L----------------| 
--6----------------|--L----------------|--3----------------|--L----------------| 
--4----------------|--L----------------|-------------------|-------------------| 

     PM PM PM PM PM PM PM PM PM PM PM PM PM PM     
-----------------------------------------------| 
-----------------------------------------------| 
-----------------------------------------------| 
--3--------------------------------------------| 
--1--1--1--1--1--1--1--1--1--1--1--1--1--1--1--| 
-----------------------------------------------| 

  PM PM PM PM PM PM PM PM PM PM PM PM PM PM PM PM                                     
--------------------------------------------------|-------------------| 
--------------------------------------------------|-------------------| 
--------------------------------------------------|-------------------| 
--------------------------------------------------|-------------------| 
--1--1--1--1--1--1--1--1--1--1--1--1--1--1--1--1--|--5----------------| 
--------------------------------------------------|--3----------------| 

  T          T          T         T                                              
--------------------------------------------|-------------------| 
--------------------------------------------|-------------------| 
--8p-3p-0h-3-5p-3-5p-3p-0h-3-7p-3-8p-3-7p-3-|-------------------| 
--------------------------------------------|-------------------| 
--------------------------------------------|--6----------------| 
--------------------------------------------|--4----------------| 
              
-------------------|-------------------|-------------------| 
-------------------|-------------------|-------------------| 
-------------------|-------------------|-------------------| 
-------------------|--5----------------|--L----------------| 
--L----------------|--3----------------|--L----------------| 
--L----------------|-------------------|-------------------| 

     PM PM PM PM PM > PM PM PM PM > PM PM PM                                
---------------------------------------------|---------------------| 
---------------------------------------------|---------------------| 
---------------------------------------------|---------------------| 
--3------------------------------------------|--3------------------| 
--1--1--1--1--1--1--1-1--1--1--1--1-1--1--1--|--1------------------| 
---------------------------------------------|---------------------| 
    
-------------------------------|-----------------------------| 
-------------------------------|-----------------------------| 
--/12--12----10--12--10--8--8--|--/12--12----10--7--7--/8----| 
-------------------------------|-----------------------------| 
-------------------------------|-----------------------------| 
-------------------------------|-----------------------------| 
      
---------------------13s--15------|--15s--13------13~--L--------| 
--/16--16----15--16-----------16--|-----------16----------------| 
----------------------------------|-----------------------------| 
----------------------------------|-----------------------------| 
----------------------------------|-----------------------------| 
----------------------------------|-----------------------------| 
   
----------------------------11s--|--15------15--16-----/18--16p-15-----| 
------------------------11-------|------16-------------------------16--| 
--/12--12-----------12-----------|-------------------------------------| 
-------------13--L---------------|-------------------------------------| 
---------------------------------|-------------------------------------| 
---------------------------------|-------------------------------------| 
       
----------------------------------|-----------------------------| 
--16--16------16--16--------------|-----------16----------------| 
----------15----------15----------|--/15----------15~--L--------| 
--------------------------18--17--|-------17--------------------| 
----------------------------------|-----------------------------| 
----------------------------------|-----------------------------| 
     
---------------------------------|---------------------------------| 
---------------------------------|---------------------------------| 
-----12--12--10--12--10----------|-----/12--12--10--12--13--/15----| 
-------------------------13--12--|---------------------------------| 
---------------------------------|---------------------------------| 
---------------------------------|---------------------------------| 

   T           T                                                        
--------------------------------------|------------------------------| 
--16(11)------------------------------|--16------16------------------| 
--------------15(13)--13----12-13-12--|------13------/<>15--L--------| 
--------------------------------------|------------------------------| 
--------------------------------------|------------------------------| 
--------------------------------------|------------------------------| 
    
--/15--15----15p-13-15--13----------|--15--15----13h-15p-13--20--20----| 
----------------------------16--13--|----------------------------------| 
------------------------------------|----------------------------------| 
------------------------------------|----------------------------------| 
------------------------------------|----------------------------------| 
------------------------------------|----------------------------------| 
   
--18p-15-----16p-15-15p-11-----15p-13-13p-10----10-| 
---------16----------------13----------------11----| 
---------------------------------------------------| 
---------------------------------------------------| 
---------------------------------------------------| 
---------------------------------------------------| 

   TP     TP                          
                 |------3------|        
--16----/18----/16----/15-----------| 
-----------------------------/15----| 
------------------------------------| 
------------------------------------| 
------------------------------------| 
------------------------------------| 

            *''Pac man'' Noise                                    
-------------------------------------x-----------x-----------x-| 
--<>16~---------------------------x-----------x-----------x----| 
-------------------------------x-----------x-----------x-------| 
------------x---------------------------x-----------x----------| 
---------------------------------------------------------------| 
---------------------------------------------------------------| 

                                             |---3---|                          
-------------------------------8--|------8---8--10--11--10-11-13-11-13b--L--| 
------------------------8-9-11----|--8-9---9--------------------------------| 
--8-7-5-7-5-------5-7-8-----------|-----------------------------------------| 
------------6-5-6-----------------|-----------------------------------------| 
----------------------------------|-----------------------------------------| 
----------------------------------|-----------------------------------------| 
   
--13--------------------13----13-15-13-15-16--| 
-----16-13-----13-15-16----16-----------------| 
------------13--------------------------------| 
----------------------------------------------| 
----------------------------------------------| 
----------------------------------------------| 

               |-----3----|                 
--16-15-18-15------------18b-L------18--| 
--------------16--15--------------------| 
----------------------17----------------| 
----------------------------------------| 
----------------------------------------| 
----------------------------------------| 
   
--20-18-20-16-20-15-20---------------15-16-18--| 
-----------------------18s-15--16-18-----------| 
-----------------------------------------------| 
-----------------------------------------------| 
-----------------------------------------------| 
-----------------------------------------------| 

                                            w/bar ''flotter''                
--18-16-18-15-18------------------------15-16~---------------| 
------------------18s-15-15----15-16-18----------------------| 
----------------------------17-------------------------------| 
-------------------------------------------------------------| 
-------------------------------------------------------------| 
-------------------------------------------------------------| 
   
-----------13-------13-15-13----13----------------| 
--13-15-16----15-16----------16----16-15-16-15-13-| 
--------------------------------------------------| 
--------------------------------------------------| 
--------------------------------------------------| 
--------------------------------------------------| 
   
---------------------------------------------------| 
---------------------------------------------15-16-| 
--15-13-12-13-15-13-12----------12s-13-15-17-------| 
-----------------------15-12-----------------------| 
-----------------------------15--------------------| 
---------------------------------------------------| 

  w/Digitech Whammy Pedal                                                  
-----------------------------3--L-----------|-------------------------| 
--4-----------------------3--------6--4--3--|--4--3-----------3--4----| 
--------------------------------------------|--------5--3--5----------| 
--------------------------------------------|-------------------------| 
--------------------------------------------|-------------------------| 
--------------------------------------------|-------------------------| 
    
--6--6--6--8--6----------|--10--10--10--11--10--8--------| 
-----------------9--8----|-------------------------11----| 
-------------------------|-------------------------------| 
-------------------------|-------------------------------| 
-------------------------|-------------------------------| 
-------------------------|-------------------------------| 

                      T              T          T            
--------------11h-15-16p-15p-11---------------------------| 
-----------13-------------------13h-16p-13----------------| 
--------12---------------------------------12h-17p-12-----| 
-----13-----------------------------------------------13h-| 
--15------------------------------------------------------| 
----------------------------------------------------------| 

   T                         T                        T      
   |---3--|        |---3--|                  |--3--|            
---------------------11h-13-15p-11-------------11-15-20----| 
------------------13------------------------13-------------| 
---------------12-------------------xg12-------------------| 
--17p-13----13---------------------------13----------------| 
---------15------------------------------------------------| 
-----------------------------------------------------------| 

   T     T     T     T     T     T     T     T       
--15-11-15-11-15-11-------15-11-15-11-15-11-------| 
--------------------16-13-------------------16-13-| 
--------------------------------------------------| 
--------------------------------------------------| 
--------------------------------------------------| 
--------------------------------------------------| 

   T     T     T     T     T                
--15-11-15-11-15-11-------18b----L~----| 
--------------------16-13--------------| 
---------------------------------------| 
---------------------------------------| 
---------------------------------------| 
---------------------------------------| 

--------------------------------------------11-| 
-----------------------------------11-13-15----| 
------------------8-10-12-10-12-13-------------| 
----------8-10-12------------------------------| 
--8-10-11--------------------------------------| 
-----------------------------------------------| 

                                      T            T        T               
--/13--13----13g15--13------------|---------------------------------| 
------------------------16--13----|--13(8)--------------------------| 
----------------------------------|---------------12(5)----12(8)----| 
----------------------------------|---------------------------------| 
----------------------------------|---------------------------------| 
----------------------------------|---------------------------------| 
    
--15-15-15-15-15s--11s--15s--11--10--11--| 
-----------------------------------------| 
-----------------------------------------| 
-----------------------------------------| 
-----------------------------------------| 
-----------------------------------------| 

   T     T     T     T     T     T     T     T    
--16p-8-15p-8-16p-8-15p-8-16p-8-18p-8-20p-8-16--| 
------------------------------------------------| 
------------------------------------------------| 
------------------------------------------------| 
------------------------------------------------| 
------------------------------------------------| 

                                                  tr             \1             
--20-16----------------16-18-16-18-20-16------|---------------------------| 
--------16----------16--------------------16--|--15(18)-------------------| 
-----------17----17---------------------------|----------------<>2--------| 
--------------18------------------------------|---------------------------| 
----------------------------------------------|---------------------------| 
----------------------------------------------|---------------------------| 


                                          (Herman)                  
                             \1                                     
--------------------------------------|---------------------------| 
--------------------------------------|--18b------18b---L------16-| 
--------------------13-15-<>17--------|---------------------------| 
-----------13-15-17-------------------|---------------------------| 
--13-15-16----------------------------|---------------------------| 
--------------------------------------|---------------------------| 
  
------------------------------|-----------------------------------| 
--18--16----------------------|-----------------------------------| 
----------17--15--L-----------|--15---------------------------15--| 
-------------------------/17--|------17--16--15--13s--15--17------| 
------------------------------|-----------------------------------| 
------------------------------|-----------------------------------| 
    
-------------------------------|-------/15----16----18----| 
----------16------<>16~--------|--------------------------| 
--16--17------15---------------|--------------------------| 
-------------------------------|--------------------------| 
-------------------------------|--------------------------| 
-------------------------------|--------------------------| 
   
--18br----L--18~--L--16----15--|--16--15---------------------------| 
-------------------------------|----------16--------------18--16~--| 
-------------------------------|--------------15------15-----------| 
-------------------------------|------------------17---------------| 
-------------------------------|-----------------------------------| 
-------------------------------|-----------------------------------| 
  
------------------------------|------18---------------15----------| 
---L----18--16--18b-----------|--16------16S--13--13------13------| 
-----------------------15~----|-------------------------------15--| 
------------------------------|-----------------------------------| 
------------------------------|-----------------------------------| 
------------------------------|-----------------------------------| 

                                            /1\      /1\      /1\      /1\     
                   |----3----|                                                  
--------------------------------18----|--<>18--L-----------------------------| 
----------13--16----------------------|-----------<>18--L--<>16--L-----------| 
--13--15----------20p--18p--16--------|-----------------------------<>17--L--| 
--------------------------------------|--------------------------------------| 
--------------------------------------|--------------------------------------| 
--------------------------------------|--------------------------------------| 

      \1/ \1/      \1/\1/ \1/        
--15--L---L---18---L--L---L----| 
-------------------------------| 
-------------------------------| 
-------------------------------| 
-------------------------------| 
-------------------------------| 

   T                 T           T          T                  T          T      
   |---6---|  |---6--|   |-3-|   |---3---|  |-3-|   |---3--|   |---6---|  |---6- 
--20p-16p-15--L-----------------20p-15h-16-20p-16--20p-15----------------20p-15h 
----------------16h-20p-15h-16----------------------------16h-20p-15h-16-------- 
-------------------------------------------------------------------------------- 
-------------------------------------------------------------------------------- 
-------------------------------------------------------------------------------- 
-------------------------------------------------------------------------------- 

   T          T                  T      T      T      T             
   |---6---|  |---6---|                                              
--20p-15h-16-20p-15h-16p-15h--------------------------------------| 
-----------------------------16-20p-15-20p-15-20p-15--------------| 
-----------------------------------------------------17p-15s--13--| 
------------------------------------------------------------------| 
------------------------------------------------------------------| 
------------------------------------------------------------------| 

                                        |---3---|    
---------------15-18-16-15-------------------------| 
------------16-------------18-16-15----------------| 
---------15-------------------------17-15----------| 
------17-----------------------------------18--17--| 
--18-----------------------------------------------| 
---------------------------------------------------| 

                           |--3--|                     
-----------------------------------------------------| 
--------------------13-15-16-15-13-------------13-15-| 
-----------12-13-15----------------15-13-12-15-------| 
--12-13-15-------------------------------------------| 
-----------------------------------------------------| 
-----------------------------------------------------| 
   
-----------------------------|--11--13----/15--L--10----8--| 
--/16------16--L\--13----13--|-----------------------------| 
-----------------------------|-----------------------------| 
-----------------------------|-----------------------------| 
-----------------------------|-----------------------------| 
-----------------------------|-----------------------------| 

                          \1/  \1/ \1/                                
                      |-3-|                                                
--10-8---------------------------------|----------------------------| 
-------11-8-9-11-9-8-------------------|----------------------------| 
---------------------11---L----L---L---|--\9--8--11--<>8~--L--------| 
---------------------------------------|----------------------------| 
---------------------------------------|----------------------------| 
---------------------------------------|----------------------------| 
   
--15--15------15--L------15------|--15--15h-16----15-----------------| 
----------16---------16------16--|-----------------------16--<>15----| 
---------------------------------|-----------------------------------| 
---------------------------------|-----------------------------------| 
---------------------------------|-----------------------------------| 
---------------------------------|-----------------------------------| 
  
--------------------------------------------------| 
--------------------------------------15-------15-| 
-----------13-15----13-15-16-13-15-17----15-17----| 
--13-15-17-------17-------------------------------| 
--------------------------------------------------| 
--------------------------------------------------| 
  
-----------------------------------------------------| 
--------15----18----16h-18--------18----20----18h-20-| 
-----17----17----17------------19----19----19--------| 
--18-----------------------/20-----------------------| 
-----------------------------------------------------| 
-----------------------------------------------------| 

   PM PMPM PM  PM PMPM PM  PM PMPM PM  PM PMPM PM     
--11-11-8--8--13-13-8--8--15-15-8--8--13-13-8--8--| 
--------------------------------------------------| 
--------------------------------------------------| 
--------------------------------------------------| 
--------------------------------------------------| 
--------------------------------------------------| 

   |---6---|  |---6---|  |---6---|  |---6---|  |---6---|  |---6---|  |---6---|    
--20p-11h-16-20p-11h-16-20p-11h-16-20p-11h-16-20p-11h-16-20p-11h-16-20p-11h-16-2 
-------------------------------------------------------------------------------- 
-------------------------------------------------------------------------------- 
-------------------------------------------------------------------------------- 
-------------------------------------------------------------------------------- 
-------------------------------------------------------------------------------- 
  
--------11-11-18p-16p-15----16p-15p-13----------------| 
--15-15------------------18------------16-15-13----15-| 
------------------------------------------------15----| 
------------------------------------------------------| 
------------------------------------------------------| 
------------------------------------------------------| 

   PM PM PM PM PM PM PM PM                     
                           |---3---|               
--11-11--------------------------------------| 
--------15-11-15-15-11-----------------------| 
-----------------------13-12--13--15--12~----| 
---------------------------------------------| 
---------------------------------------------| 
---------------------------------------------| 

                                          \1/              W        
--\11--10--11--\10-----------------|--11--L---------------------| 
-----------------------11--11------|-----------11--9------11----| 
-------------------------------12--|------------------12--------| 
-----------------------------------|----------------------------| 
-----------------------------------|----------------------------| 
-----------------------------------|----------------------------| 

                                     (string noise)                          
                                                                            
                       H           
--------------------10-----------|---------------------|-------------------| 
------------9-11-13----13--------|---------------------|-------------------| 
--8-8-10-12----------------------|---x/----------------|-------------------| 
---------------------------------|---------------------|-------------------| 
---------------------------------|---------------------|--6----------------| 
---------------------------------|---------------------|--4----------------| 
     
-------------------|-------------------|-------------------| 
-------------------|-------------------|-------------------| 
-------------------|-------------------|-------------------| 
-------------------|--5----------------|--L----------------| 
--L----------------|--3----------------|--L----------------| 
--L----------------|-------------------|-------------------| 

     PM PM PM PM PM PM PM PM PM PM PM PM PM PM   
-----------------------------------------------| 
-----------------------------------------------| 
-----------------------------------------------| 
--3--------------------------------------------| 
--1--1--1--1--1--1--1--1--1--1--1--1--1--1--1--| 
-----------------------------------------------| 

  PM PM PM PM PM PM PM PM PM PM PM PM PM PM PM PM                                   
--------------------------------------------------|-------------------| 
--------------------------------------------------|-------------------| 
--------------------------------------------------|-------------------| 
--------------------------------------------------|-------------------| 
--1--1--1--1--1--1--1--1--1--1--1--1--1--1--1--1--|--5----------------| 
--------------------------------------------------|--3----------------| 

  T       T       T        T                                  
-----------------------------------|--20------------20--18--| 
-----------------------------------|------------------------| 
--7-3-0-3-8-3-0-3-8-3-0-3-10-3-0-3-|------------------------| 
-----------------------------------|------------------------| 
-----------------------------------|------------------------| 
-----------------------------------|------------------------| 

--20------18--L----------|---------------------| 
-------------------20----|--16-----------------| 
-------------------------|---------------------| 
-------------------------|---------------------| 
-------------------------|---------------------| 
-------------------------|---------------------| 


   *slide notes down neck w/bar is depressed              
   \1                                                      
--------------------------------------------------11----| 
--20(16)------------------------------------13----------| 
--------------------------------------------------------| 
--------------------------------------------------------| 
--------------------------------------------------------| 
--------------------------------------------------------| 
    
--13------13--L----11----|--13------------------| 
--15------15--L----13----|--15------------------| 
-------------------------|----------------------| 
-------------------------|----------------------| 
-------------------------|----------------------| 
-------------------------|----------------------| 

   PM  PM  PM  PM  PM  PM  PM  PM     PM  PM  PM  PM  PM  PM  PM  PM     
--15--18--18--15--18--18--15--18--|--18--15--15--18--18--15----------| 
---8--11--11---8--11--11---8--11--|--11---8--11---8--11---8--18--16--| 
----------------------------------|--------------------------10---8--| 
----------------------------------|----------------------------------| 
----------------------------------|----------------------------------| 
----------------------------------|----------------------------------| 

   PM  PM  PM  PM  PM  PM  PM  PM     PM  PM  PM  PM  PM  PM  PM  PM      
--13--15--15--13--15--15--13--15--|--15--13--13--15--16--15--13------| 
----------------------------------|------------------------------16--| 
--10--12--12--10--12--12--10--12--|--12--10--10--12--13--12--10------| 
----------------------------------|------------------------------13--| 
----------------------------------|----------------------------------| 
----------------------------------|----------------------------------| 

--------------------------------|------------------------------| 
--------------------------------|------------------------------| 
--------------------------------|------------------------------| 
---x---x---x---x------x------x--|------x------x---x---x---x----| 
--------------------------------|------------------------------| 
--------------------------------|------------------------------| 

   (w/pan effect)                                                          
   T                         T              T              T               
--20p------------15h-18p-15-20p-15h-18p-15-20p-15h-18p-15-20p-15h-18p-15-| 
-------------------------------------------------------------------------| 
-------------------------------------------------------------------------| 
-------------------------------------------------------------------------| 
-------------------------------------------------------------------------| 
-------------------------------------------------------------------------| 

   T              T              T              T                
--20p-15h-18p-15-20p-15h-18p-15-20p-15h-18p-15-20p-15h-18p-15-| 
--------------------------------------------------------------| 
--------------------------------------------------------------| 
--------------------------------------------------------------| 
--------------------------------------------------------------| 
--------------------------------------------------------------| 

                                               *string breaks   
   PM  PM PM  PM  PM PM  PM  PM       /2\      \1                           
--------------------------------|-----------------------------| 
--13--11--9------11--9----------|-----------------------------| 
-------------12---------12--10--|--<>22--------x--------------| 
--------------------------------|-----------------------------| 
--------------------------------|-----------------------------| 
--------------------------------|-----------------------------| 

   |---3---|   |---3---|   |-----3-----|                                        
--------------------------------18----20----|--<>20----L-------------|| 
--20--18--16------16--18--20----------------|------------------------|| 
--------------19----------------------------|------------------------|| 
--------------------------------------------|------------------------|| 
--------------------------------------------|------------------------|| 
--------------------------------------------|------------------------|| 




*********************************************************************************************** 
----------------------------------------------------------------------------------------------- 
*********************************************************************************************** 




Sam: 
    
E||---------------------| 
B||---------------------| 
G||---------------------| 
D||--5------------------| 
A||--3------------------| 
E||---------------------| 
              
--------------------|| 
--------------------|| 
-------------------*|| 
-------------------*|| 
--------------------|| 
--------------------|| 
               
-------------------|-------------------| 
-------------------|-------------------| 
-------------------|-------------------| 
--3----------------|--L----------------| 
--1----------------|--L----------------| 
-------------------|-------------------| 
    
---------------------| 
---------------------| 
---------------------| 
---------------------| 
--6------------------| 
--4------------------| 
  
----------------------| 
----------------------| 
----------------------| 
----------------------| 
--5----5----5---------| 
--3----3----3---------| 

  PM PM PM PM PM PM PM PM PM PM PM PM PM 
---------------------------------------- 
---------------------------------------- 
--8--8--8--8--5--5--8--8--8--8--5--5--8- 
---------------------------------------- 
---------------------------------------- 
---------------------------------------- 

  PM PM PM PM PM PM PM PM PM PM PM PM PM 
---------------------------------------- 
---------------------------------------- 
--8--8--8--8--5--5--8--8--8--8--5--5--8- 
---------------------------------------- 
---------------------------------------- 
---------------------------------------- 

  PM PM PM PM PM PM PM PM PM PM PM PM PM 
---------------------------------------- 
---------------------------------------- 
--8--8--8--8--5--5--8--8--8--8--5--5--8- 
---------------------------------------- 
---------------------------------------- 
---------------------------------------- 

  PM PM PM PM PM PM PM PM PM PM PM PM PM 
---------------------------------------- 
---------------------------------------- 
--8--8--8--8--5--5--8--8--8--8--5--5--8- 
---------------------------------------- 
---------------------------------------- 
---------------------------------------- 

  PM PM PM PM PM PM PM PM PM PM PM PM PM 
---------------------------------------- 
---------------------------------------- 
--5--5--5--5--1--1--5--5--5--5--1--1--5- 
---------------------------------------- 
---------------------------------------- 
---------------------------------------- 

  PM PM PM PM PM PM PM PM PM PM PM PM PM 
---------------------------------------- 
---------------------------------------- 
--5--5--5--5--1--1--5--5--5--5--1--1--5- 
---------------------------------------- 
---------------------------------------- 
---------------------------------------- 

--8p-4--------------8p-4--------------| 
-------4--4h-6p-4--------4--4h-6p-4---| 
------------------5-----------------5-| 
--------------------------------------| 
--------------------------------------| 
--------------------------------------| 

  *depress bar prior to picking harmonic                           
---------------------------------------- 
---------------------------------------- 
--7------------------------------------- 
---------------------------------------- 
---------------------------------------- 
---------------------------------------- 
      
---------------------| 
---------------------| 
---------------------| 
--5------------------| 
--3------------------| 
---------------------| 
               
-------------------| 
-------------------| 
-------------------| 
-------------------| 
-------------------| 
-------------------| 
       
---------------------| 
---------------------| 
---------------------| 
---------------------| 
--6------------------| 
--4------------------| 
       
-------------------| 
-------------------| 
-------------------| 
-------------------| 
-------------------| 
-------------------| 
    
---------------------| 
---------------------| 
---------------------| 
--3 
	  

No existe una video leccione para esta canción

request
LosAcordes
Buscar
auto avanzar rasgueos aumentar disminuir cambiar color esconder acordes gráficos
losacordes exhibir acordes losacordes youTube video losacordes ocultar tabs losacordes ir hacia arriba losacordes