Dragonforce

Início > Dragonforc... > acordes

Soldiers Of The Wasteland Tablatura

Dragonforce

Dificultad:Ningún gradoNingún grado

edsooliveira

tuner correct add songbook print version text version salvar en e-mail
acordesukuleletablaturabajobateríaarmónicaflautacavacopiano Guitar Pro
acordes

Soldiers Of The Wasteland

	  legend 
slide:     / 
pull off:  p 
hammer on: h 
Vibrato:   ~ 
Bend:      ^ 
tapping:   T 
palm mute: P.M.= 
----------------- 

The tab shows the parts of the song in order and they somtimes may be played more than 
listen to the song while you look this over. 

Intro: 
E|-----------2-----------2-----------------------2-----------2----------------| 
B|--0--3--5-----5--3--5-----5--3--0-----0--3--5-----5--3--5-----5--3--5--0--3-| 
G|-----------------------------------2----------------------------------------| 
D|----------------------------------------------------------------------------| 
A|----------------------------------------------------------------------------| 
E|----------------------------------------------------------------------------| 

-----2-----------2-----------------------2---------------------------------| 
--5-----5--3--5-----5--3--0-----0--3--5-----5--3--5--3--2-----0--7--7--10--| 
-----------------------------2-----------------------------2---------------| 
---------------------------------------------------------------------------| 
---------------------------------------------------------------------------| 
---------------------------------------------------------------------------| 

--7------------7-------------------------7-------------7-------------------| 
----10--7--10-----10--7--------7--7--10-----10--7--10-----10--7--10--0--3--| 
-------------------------9--7----------------------------------------------| 
---------------------------------------------------------------------------| 
---------------------------------------------------------------------------| 
---------------------------------------------------------------------------| 

-----2-----------2-----------------------3---------------------------------| 
--5-----5--3--5-----5--3--0-----0--3--5-----5--3--5--3--2-----0------------| 
-----------------------------2-----------------------------2---------------| 
---------------------------------------------------------------------------| 
---------------------------------------------------------------------------| 
---------------------------------------------------------------------------| 

--------------------------------------------------------------| 
--------------------------------------------------------------| 
--------------------------------------------------------------| 
--------------------------------------------------------------| 
--0h2--2--2-2-2--5p2--2--2-2-2--5p2--2--2-2-2--5---4---5---7--| 
--------------------------------------------------------------| 

                                     G5 
---------------------------------------------------------------------------| 
---------------------------------------------------------------------------| 
---------------------------------------------------------------------------| 
-------------------------------------2-------------------------------------| 
--0h2--2--2-2-2--5p2--2--2-2-2--5p2--2-------------------------------------| 
-------------------------------------4-------------------------------------| 
synth part: 
---------------------------------------------------------------------------| 
---------------------------------------------------------------------------| 
---------------------------------------------------------------------------| 
---------------------------------------------------------------------------| 
--12p9-9-9-12p9-9-9-12p9-9-9-12p9-9-9-12p9-9-9-12p9-9-9--9p7-7-7-9p7-7-7---| 
---------------------------------------------------------------------------| 

im not shure about this part 
------------------------------------------------------| 
------------------------------------------------------| 
------------------------------------------------------| 
------------------------------------------------------| 
--12-12-12h14-12-12-12h14-12-12-12h14-12-12-12h14-12--| 
------------------------------------------------------| 

---------------------------------------------------------------------------| 
---------------------------------------------------------------------------| 
---------------------------------------------------------------------------| 
---------------------------------------------------------------------------| 
--12p9-9-9-12p9-9-9-12p9-9-9-12p9-9-9-12p9-9-9-12p9-9-9--9p7-7-7-9p7-7-7---| 
---------------------------------------------------------------------------| 

------------------------------------------------------| 
------------------------------------------------------| 
------------------------------------------------------| 
------------------------------------------------------| 
--12-12-12h14-12-12-12h14-12-12-12h14-12-12-12h14-12--| 
------------------------------------------------------| 
Verse: 
 B5 
---------------------------------------------------------------------------| 
---------------------------------------------------------------------------| 
---------------------------------------------------------------------------| 
--9-----9--9--9--9--9--9--9--9--9--9--9--9--9--9--9--9--9--9--9--9--9--9---| 
--9-----9--9--9--9--9--9--9--9--9--9--9--9--9--9--9--9--9--9--9--9--9--9---| 
--7-----7--7--7--7--7--7--7--7--7--7--7--7--7--7--7--7--7--7--7--7--7--7---| 
                      G5                   A5 
---------------------------------------------------------------------| 
---------------------------------------------------------------------| 
---------------------------------------------------------------------| 
--9--9--9--9--9--9---3--------------------5--------------------------| 
--9--9--9--9--9--9---3--------------------5--------------------------| 
--7--7--7--7--7--7---5--------------------7--------------------------| 
   B5 
--------------------------------------------------------------------| 
--------------------------------------------------------------------| 
--------------------------------------------------------------------| 
--9-----9--9--9--9--9--9--9--9--9--9--9--9--9--9--9--9--9--9--9--9--| 
--9-----9--9--9--9--9--9--9--9--9--9--9--9--9--9--9--9--9--9--9--9--| 
--7-----7--7--7--7--7--7--7--7--7--7--7--7--7--7--7--7--7--7--7--7--| 
   A5 
--------------------------------------------------------------------| 
--------------------------------------------------------------------| 
--------------------------------------------------------------------| 
--5-----5--5--5--5--5--5--5--5--5--5--5--5--5--5--5--5--5--5--5--5--| 
--5-----5--5--5--5--5--5--5--5--5--5--5--5--5--5--5--5--5--5--5--5--| 
--7-----7--7--7--7--7--7--7--7--7--7--7--7--7--7--7--7--7--7--7--7--| 
 D5 P.M.================ P.M.===  P.M.==============  P.M.================ 
---------------------------------------------------------------------------| 
---------------------------------------------------------------------------| 
---------------------------------------------------------------------------| 
--7--------------------7--------7-------------------7----------------------| 
--5--5-5-5-5-5-5-5-5-5-5--5-5-5-5-5-5-5-5-5-5-5-5-5-5--5-5-5-5-5-5-5-5-5---| 
---------------------------------------------------------------------------| 
                       A5 P.M.============== P.M.=== P.M.================= 
---------------------------------------------------------------------------| 
---------------------------------------------------------------------------| 
--7------------------------------------------------------------------------| 
--7------------------------------------------------------------------------| 
--5--------------------7--------------------7-------7----------------------| 
-----------------------5--5-5-5-5-5-5-5-5-5-5-5-5-5-5--5-5-5-5-5-5-5-5-5---| 
  P.M.================ 
---------------------------------------------| 
---------------------------------------------| 
---------------------------------------------| 
----------------------7----------------------| 
--7-------------------7----------------------| 
--5-5-5-5-5-5-5-5-5-5-5----------------------| 
Pre-Chorus 
 D5                             P.M.=====  P.M.==============   P.M.==== 
---------------------------------------------------------------------------| 
---------------------------------------------------------------------------| 
--7------------------------------------------------------------------------| 
--7------------------------------------------------------------------------| 
--5-----------------------------7---------7------------------7----------7--| 
--------------------------------5-5-5-5-5-5-5-5-5-5-5-5-5-5-5-5-5-5-5-5-5--| 
   G5                             B5 
------------------------------------------------------------------| 
------------------------------------------------------------------| 
------------------------------------------------------------------| 
--5------------------------------9--------------------------------| 
--5------------------------------9--------------------------------| 
--3------------------------------7--------------------------------| 
   B5                             D5 
------------------------------------------------------------------| 
------------------------------------------------------------------| 
---------------------------------7--------------------------------| 
--9------------------------------7--------------------------------| 
--9------------------------------5--------------------------------| 
--7---------------------------------------------------------------| 
 A5 P.M.=====  P.M.==============  P.M.=====  P.M.============  P.M.===== 
---------------------------------------------------------------------------| 
---------------------------------------------------------------------------| 
---------------------------------------------------------------------------| 
---------------------------------------------------------------------------| 
--7---------7-------------------7---------7-------------------7---------7--| 
--5-5-5-5-5-5-5-5-5-5-5-5-5-5-5-5-5-5-5-5-5-5-5-5-5-5-5-5-5-5-5-5-5-5-5-5--| 
  P.M.=================== 
-----------------------------| 
-----------------------------| 
-----------------------------| 
-----------------------------| 
--------------------------7--| 
--5-5-5-5-5-5-5-5-5-5-5-5-5--| 
Chorus: 
   D5                              A5 
-------------------------------------------------------------------| 
-------------------------------------------------------------------| 
--5----------------------------------------------------------------| 
--5-------------------------------5--------------------------------| 
--7-------------------------------5--------------------------------| 
----------------------------------7--------------------------------| 
   G5                              B5 
-------------------------------------------------------------------| 
-------------------------------------------------------------------| 
-------------------------------------------------------------------| 
--5-------------------------------9--------------------------------| 
--5-------------------------------9--------------------------------| 
--3-------------------------------7--------------------------------| 
   B5                              G5 
-------------------------------------------------------------------| 
-------------------------------------------------------------------| 
-------------------------------------------------------------------| 
--9-------------------------------5--------------------------------| 
--9-------------------------------5--------------------------------| 
--7-------------------------------3--------------------------------| 
   A5                              D5 
-------------------------------------------------------------------| 
-------------------------------------------------------------------| 
----------------------------------7--------------------------------| 
--7-------------------------------7--------------------------------| 
--7-------------------------------5--------------------------------| 
--5----------------------------------------------------------------| 
Solo Fill: 
--7-7--9-10-9-7-------------------7-7--9-10-9-7----------7-9-10-12-14-15--| 
----------------10-7--7--10---------------------10-7--10------------------| 
-----------------------------9--7-----------------------------------------| 
--------------------------------------------------------------------------| 
--------------------------------------------------------------------------| 
--------------------------------------------------------------------------| 

--15-14-12-----------12-10-9----------10-9-7------------------------------| 
----------15-12-15-12-------12-9-12-9-------10-9-10-9---12/---15/---12/---| 
--------------------------------------------------------------------------| 
--------------------------------------------------------------------------| 
--------------------------------------------------------------------------| 
--------------------------------------------------------------------------| 
   D5  B5  G5  A5  D5 
--------------------------------------------------------------------------| 
--------------------------------------------------------------------------| 
--7---------------7-------------------------------------------------------| 
--7---9---5---7---7-------------------------------------------------------| 
--5---9---5---7---5-------------------------------------------------------| 
------7---3---5-----------------------------------------------------------| 
   B5       P.M.=====           P.M.=====           P.M.===== 
--------------------------------------------------------------------------| 
--------------------------------------------------------------------------| 
--------------------------------------------------------------------------| 
--------------------------------------------------------------------------| 
--9-------9-----------9-------9-----------9-------9-----------9-------9---| 
--7---7---7--7--7--7--7---7---7--7--7--7--7---7---7--7--7--7--7---7---7---| 
 P.M.=====  A5       P.M.=====           P.M.=====           P.M.===== 
--------------------------------------------------------------------------| 
--------------------------------------------------------------------------| 
--------------------------------------------------------------------------| 
--------------------------------------------------------------------------| 
-----------7-------7-----------7-------7-----------7-------7-----------7--| 
--7--7--7--5---5---5--5--5--5--5---5---5--5--5--5--5---5---5--5--5--5--5--| 

-----------------------------------------------------------------------| 
-----------------------------------------------------------------------| 
-----------------------------------------------------------------------| 
-------------------7h9-9-9-12p9-9-9-7h9-9-9-12p9-9-9-7h9-9-9-12p9-9-9--| 
------7----------------------------------------------------------------| 
--5---5--5--5--5-------------------------------------------------------| 

-----------------------------------------------------------------------| 
-----------------------------------------------------------------------| 
-----------------------------------------------------------------------| 
--7h9-9-9-12p9-9-9-7h9-9-9-12p9-9-9-7h9-9-9-12p9-9-9-7h9-9-9-12p9-9-9--| 
-----------------------------------------------------------------------| 
-----------------------------------------------------------------------| 

-----------------------------------------------------------------------| 
-----------------------------------------------------------------------| 
-----------------------------------------------------------------------| 
--7h9-9-9-12p9-9-9--4h7-7-7-9p7-7-7-4h7-7-7-9p7-7-7-4h7-7-7-9p7-7-7----| 
-----------------------------------------------------------------------| 
-----------------------------------------------------------------------| 

-----------------------------------------------------------------------| 
-----------------------------------------------------------------------| 
-------------------7h9-9-9-12p9-9-9-7h9-9-9-12p9-9-9-7h9-9-9-12p9-9-9--| 
--4h7-7-7-9p7-7-7------------------------------------------------------| 
-----------------------------------------------------------------------| 
-----------------------------------------------------------------------| 

-----------------------------------------------------------------------| 
-----------------------------------------------------------------------| 
--7h9-9-9-12p9-9-9-----------------------------------------------------| 
--------------------7h9-9-9-12p9-9-9-7h9-9-9-12p9-9-9-7h9-9-9-12p9-9-9-| 
-----------------------------------------------------------------------| 
-----------------------------------------------------------------------| 

-----------------------------------------------------------------------| 
-----------------------------------------------------------------------| 
-----------------------------------------------------------------------| 
--7h9-9-9-12p9-9-9-4h7-7-7-9p7-7-7-4h7-7-7-9p7-7-7-4h7-7-7-9p7-7-7-----| 
-----------------------------------------------------------------------| 
-----------------------------------------------------------------------| 

-----------------------------------------------------------------------| 
-----------------------------------------------------------------------| 
-----------------12p9-9-9-7h9-9-9-12p9-9-9-7h9-9-9-12p9-9-9-7h9-9-9----| 
4h7-7-7-9p7-7-7--------------------------------------------------------| 
-----------------------------------------------------------------------| 
-----------------------------------------------------------------------| 

-----------------------------------------------------------------------| 
-----------------------------------------------------------------------| 
--12p9-9-9-7h9-9-9-----------------------------------------------------| 
--------------------10h12-12-12-14p12-12-12-15p12-12-12-14p12-12-------| 
-----------------------------------------------------------------------| 
-----------------------------------------------------------------------| 
   B5                            D5 
----------------------------------------------------------------| 
----------------------------------------------------------------| 
--------------------------------7-------------------------------| 
--9-----------------------------7-------------------------------| 
--9-----------------------------5-------------------------------| 
--7-------------------------------------------------------------| 
   A5                            G5 
----------------------------------------------------------------| 
----------------------------------------------------------------| 
----------------------------------------------------------------| 
--7-----------------------------5-------------------------------| 
--7-----------------------------5-------------------------------| 
--5-----------------------------3-------------------------------| 

im not that shure about the solo, but this is a start 
this is kind of a slow version so speed it up 
remember, your picking almost every note 
-------------9-10-9-10-10-12-10-12-10-15-10-10-12-10-10-12-9-10-9-----------| 
--10-10-12-12----------------------------------------------------12-10-9-10-| 
----------------------------------------------------------------------------| 
----------------------------------------------------------------------------| 
----------------------------------------------------------------------------| 
----------------------------------------------------------------------------| 

--------------------------------------------------------------------------| 
--------------------------------------------------------------------------| 
------------------7-7-9-9-11-9-7-9~-----9-12-12-13-13-15-15-13-13-12-12---| 
----------7-7-9-9---------------------------------------------------------| 
--7-7-9-9-----------------------------------------------------------------| 
--------------------------------------------------------------------------| 

-----------------------------------------------21-21-19-19-17-17----------| 
------------------------------21-21-19-19-17-17------------------21-21-19-| 
--12-13-13-15-15-13-13-12-12----------------------------------------------| 
--------------------------------------------------------------------------| 
--------------------------------------------------------------------------| 
--------------------------------------------------------------------------| 

-------------------21-21-19-19-17-17-----------------------------------------| 
--21-21-19-19-17-17-------------------12-----------12-----------12--------12-| 
---------------------------------------14-14-14-14-14-14-14-14-14-14-14-14---| 
-----------------------------------------------------------------------------| 
-----------------------------------------------------------------------------| 
-----------------------------------------------------------------------------| 

--7-7-9-9-10-10-12-12-14-14-12-12-10-9-----------------------------12-10-----| 
-----------------------------------------------------------------10----12-10-| 
----------------------------------------------------------10h11h12-----------| 
---------------------------------------------------10h11h12------------------| 
---------------------------------------------7h8h10--------------------------| 
---------------------------------------7h8h10--------------------------------| 

-----20p17-------------------------------------------12--15--15/17-15--12--| 
--17-------------------------------------12--13--15------------------------| 
------------19----17----15---12~-----12------------------------------------| 
---------------------------------------------------------------------------| 
---------------------------------------------------------------------------| 
---------------------------------------------------------------------------| 

-----11--9-----9------9h11-11----9-----9-----9h11--------9-12-14-------------| 
------------12-----12--------------12-----12-------9-12-13-------12-12-14-14-| 
-----------------------------------------------------------------------------| 
-----------------------------------------------------------------------------| 
-----------------------------------------------------------------------------| 
-----------------------------------------------------------------------------| 

--12-12-15-15--------15-17-19-------------------12-13-15-12-15-12-----------| 
-------------15-17-18-------------------12-13-15-----------------15-12------| 
--------------------------------12-13-14------------------------------14-12-| 
----------------------------------------------------------------------------| 
----------------------------------------------------------------------------| 
----------------------------------------------------------------------------| 

-----------------------------------------------------18-16-15-------------| 
-------------------------------------------18-15------------18-16-15-18^--| 
--------------------------15-16-17-15-15-15-----15-15---------------------| 
--14-12-----------15-16-17------------------------------------------------| 
-------12-14-15-17--------------------------------------------------------| 
--------------------------------------------------------------------------| 

-/17---17-----------/15---15-------------------------------------------------| 
----------/10---10------------/8---8--///19-----17~17~17~12-12/15-15~15~15~--| 
-----------------------------------------------------------------------------| 
-----------------------------------------------------------------------------| 
-----------------------------------------------------------------------------| 
-----------------------------------------------------------------------------| 

-------------------------------------/15--15---12-------------/15--15---12--| 
--10-10/12-12~12~12~7-7/10-10~10~10~--------------15-12-10-12---------------| 
----------------------------------------------------------------------------| 
----------------------------------------------------------------------------| 
----------------------------------------------------------------------------| 
----------------------------------------------------------------------------| 
                  T        T        T        T        T        T 
---------12/15-------------------------------------------------------------| 
--15-12-----------19p15h17-19p15h17-19p15h17-19p15h17-17p12h13-17p12h13----| 
---------------------------------------------------------------------------| 
---------------------------------------------------------------------------| 
---------------------------------------------------------------------------| 
---------------------------------------------------------------------------| 
  T         T 
--------------------------------------14-12-10----------14-12-10-12-14-12-10-| 
--15p10h12-15p10h12---------/19--17------------------------------------------| 
---------------------/12---------------------10-12-10-12---------------------| 
-----------------------------------------------------------------------------| 
-----------------------------------------------------------------------------| 
-----------------------------------------------------------------------------| 

--12-10-9----------12-10-9-10-12-10-9--10-9-7-------10-9-7-9-10-9-7--------| 
--------------------------------------------------------------------7-9-12-| 
---------9-10-9-10---------------------------9-7-9-7-----------------------| 
---------------------------------------------------------------------------| 
---------------------------------------------------------------------------| 
---------------------------------------------------------------------------| 
 synth solo takes over: G5                           D Db D        D Db D 
--7-9-10-12-10-12-15--------------------------------------------------------| 
----------------------------------------------------------------------------| 
----------------------------------------------------------------------------| 
----------------------------------------------------7-6-7---------7-6-7-----| 
------------------------5-----------------5-------5-5-4-5-5-5-5-5-5-5-5-5-5-| 
------------------------3-3-3-3-3-3-3-3-3-3-3-3-3-3-------------------------| 
   E5           G5              D5           A5 
-----------------------------------------------------------| 
-----------------------------------------------------------| 
-----------------------------------------------------------| 
--9----------------------------7---------------------------| 
--7------------5---------------5------------7--------------| 
---------------3----------------------------5--------------| 
Solo 2: 
-------------------------5-7-5---5---5-----5-7-5---3-5-3-5-7-5-7-8-7-8-10-8-| 
--7-5-7--7-7-7--7-5-7--7-------7---7---5-7-------7--------------------------| 
----------------------------------------------------------------------------| 
----------------------------------------------------------------------------| 
----------------------------------------------------------------------------| 
----------------------------------------------------------------------------| 
                       T     T     T     T     T     T     T     T 
--10-12-10-12-15-12/---21p19-21p19-21p19-21p17-21p17-21p17-21p15-21p15--| 
------------------------------------------------------------------------| 
------------------------------------------------------------------------| 
------------------------------------------------------------------------| 
------------------------------------------------------------------------| 
------------------------------------------------------------------------| 
  T     T     T 
--21p17-21p17-21p17-17-19-21-22---17-15-14----------------------------------| 
-------------------------------------------17-15-14-------------------------| 
----------------------------------------------------16-15-14----------------| 
-------------------------------------------------------------16-14-12-12-13-| 
----------------------------------------------------------------------------| 
----------------------------------------------------------------------------| 

--------------------12-13-15----17----17----17----17-----------------------| 
------------12-13-15---------15----14--------------------------------------| 
----12-13-14-----------------------------14-----------------14--16-/19-----| 
--14-------------------------------------------14----14--16----------------| 
---------------------------------------------------------------------------| 
---------------------------------------------------------------------------| 

----------------------------------12-13-15-17-15-14--------15-13-12---------| 
--------------------------12-13-15-----------------17-15-14--------15-13-12-| 
------------------12-13-14--------------------------------------------------| 
----------12-13-14----------------------------------------------------------| 
--12-13-14------------------------------------------------------------------| 
----------------------------------------------------------------------------| 

---------------------------19-17-15-14-17-17p14h17p14h17p14h17p14----------| 
------7-10-7-10-10^-10/-------------------------------------------14-17-14-| 
--7-9----------------------------------------------------------------------| 
---------------------------------------------------------------------------| 
---------------------------------------------------------------------------| 
---------------------------------------------------------------------------| 
             Synth solo 2: B5                    G5 
-----------------------------------------------------------------------| 
--17-14--17-15-14------------------------------------------------------| 
-----------------16-15-14----------------------------------------------| 
-----------------------------------------------------------------------| 
--------------------------9---------------------5----------------------| 
--------------------------7-7-7-7-7-7-7-7-7-7-7-3-3-3-3-3-3-3-3-3-3-3--| 
   D5                    A5      Guitar solo 3: 
---------------------------------------------------------------------------| 
--------------------------------------------------------------12-13-14-15--| 
------------------------------------------------------12-13-14-------------| 
--7-------------------------------------------12-13-14---------------------| 
--5-5-5-5-5-5-5-5-5-5-5-7--------------------------------------------------| 
------------------------5-5-5-5-5-5-5-5-5-5-5------------------------------| 

--12-13-14-15-14-13-12-----------------------------------------------------| 
----------------------15-14-13-12------------------------------------------| 
---------------------------------14-13-12------------------------12-13-14--| 
-----------------------------------------14-13-12--------12-13-14----------| 
-------------------------------------------------14-13-12------------------| 
---------------------------------------------------------------------------| 

--14~~~----------------------------12-13-14-15-----------------------------| 
------------------------12-13-14-15-----------15-14-13-12------------------| 
----------------12-13-14---------------------------------14-13-12----------| 
--------12-13-14-------------------------------------------------14-15-16--| 
---------------------------------------------------------------------------| 
---------------------------------------------------------------------------| 

-----------------------------14-15-16-17------------------------------------| 
------------------14-15-16-17-----------17-16-15-14-------------------------| 
----------14-15-16---------------------------------16-15-14--------16-17-18-| 
--14-15-16-------------------------------------------------16-17-18---------| 
----------------------------------------------------------------------------| 
----------------------------------------------------------------------------| 

-------------16-17-18-19-------------------------------------------19-20/22-| 
--16-17-18-19-----------19-18-17-16------------------------19-20-21---------| 
-----------------------------------18-17-16--------19-20-21-----------------| 
-------------------------------------------19-20-21-------------------------| 
----------------------------------------------------------------------------| 
----------------------------------------------------------------------------| 
End Chorus 
   D5                           B5: silence chord 
---------------------------------------------------------------------------| 
---------------------------------------------------------------------------| 
--7------------------------------------------------------------------------| 
--7----------------------------9-------------------------------------------| 
--5----------------------------9-------------------------------------------| 
-------------------------------7-------------------------------------------| 
   A5                                  B5 
---------------------------------------------------------------------| 
---------------------------------------------------------------------| 
---------------------------------------------------------------------| 
---------------------------------------------------------------------| 
--7-------------------7-------7-------9-------------------9-------9--| 
//5-5-5-5-5-5-5-5-5-5-5-5-5-5-5-5-5-5-7-7-7-7-7-7-7-7-7-7-7-7-7-7-7--| 
   G5                           A5 
---------------------------------------------------------------------------| 
---------------------------------------------------------------------------| 
-------------------------------7-------------------------------------------| 
--5----------------------------7-------------------------------------------| 
--5----------------------------5-------------------------------------------| 
--3------------------------------------------------------------------------| 
   E5                                                        A5 
---------------------------------------------------------------------------| 
---------------------------------------------------------------------------| 
---------------------------------------------------------------------------| 
--9-------------------9-------9-------------------9-------9-7--------------| 
--7-7-7-7-7-7-7-7-7-7-7-7-7-7-7-7-7-7-7-7-7-7-7-7-7-7-7-7-7-7--------------| 
------------------------------------------------------------5--------------| 

repeat Chorus 

end solo 
--7-7--9-10-9-7-------------------7-7--9-10-9-7----------7-9-10-9-7-------| 
----------------10-7--7--10---------------------10-7--10------------------| 
-----------------------------9--7----------------------------------7-9----| 
--------------------------------------------------------------------------| 
--------------------------------------------------------------------------| 
--------------------------------------------------------------------------| 

------7-10/12-12--14-12-10------12-10-9-------10-9-7-------------------------| 
-7-10--------------------14-12-10------12-10-9------10-9-7-12/-15/-----------| 
-----------------------------------------------------------------------------| 
-----------------------------------------------------------------9--9--7-9//-| 
-----------------------------------------------------------------11-11-9-11--| 
-----------------------------------------------------------------------------| 
	  

No existe una video leccione para esta canción

request
Aumentar uno tonoAumentar uno tono
Aumentar uno semi-tonoAumentar uno semi-tono
Disminuir uno semi-tonoDisminuir uno semi-tono
Disminuir uno tonoDisminuir uno semi-tono
LosAcordes
Buscar
auto avanzar rasgueos aumentar disminuir cambiar color esconder acordes gráficos
losacordes exhibir acordes losacordes youTube video losacordes ocultar tabs losacordes ir hacia arriba losacordes