Dragonforce

Início > Dragonforc... > acordes

Fields Of Despair Tablatura

Dragonforce

Dificultad:Ningún gradoNingún grado

aleffederico

tuner correct add songbook print version text version salvar en e-mail
acordesukuleletablaturabajobateríaarmónicaflautacavacopiano Guitar Pro
acordes

Fields Of Despair

	   
Tuning: E A D G B e

Intro
  Q=200
 4/4
  Gtr I
   Q   Q    Q     Q     Q   Q    Q     Q

|--------------------|--------------------|
|--------------------|--------------------|
|--------------------|--------------------|
|------9----7-----9--|------5----4-----5--|
|--5-----------------|--3-----------------|
|--------------------|--------------------|

|
| Gtr II
|  Q   E  Q    E  Q     Q   E  Q    E  Q

|--------------------|--------------------|
|--------------------|--------------------|
|-12--12-11---12-11--|-----12-11---12-11--|
|--------------------|-14-----------------|
|--------------------|--------------------|
|--------------------|--------------------|

|
| Gtr III
|  Q   E  Q    E  Q     Q   E  Q    E  Q

|--------------------|--------------------|
|--------------------|--------------------|
|--------------------|--------------------|
|-14--14-12---14-12--|-----14-12---14-12--|
|--------------------|-15-----------------|
|--------------------|--------------------|



   Q   Q    Q     Q     Q   Q   Q    Q

|--------------------|------------------|
|--------------------|------------------|
|--------------------|------------------|
|------5----4-----5--|------7---5----7--|
|--4-----------------|--5---------------|
|--------------------|------------------|

|
|  Q   E  Q    E  Q     Q   E Q    E Q

|--------------------|------------------|
|--------------------|------------------|
|-----12-11---12-11--|-11---9-8----9-9--|
|-14-----------------|------------------|
|--------------------|------------------|
|--------------------|------------------|

|
|  Q   E  Q    E  Q     Q   E Q    E Q

|--------------------|------------------|
|--------------------|------------------|
|--------------------|------------------|
|-----14-12---14-12--|-12--10-9---10-9--|
|-16-----------------|------------------|
|--------------------|------------------|



   Q    Q    Q     Q       Q     Q      Q    Q

|-----------------------|-------------------------|
|-----------------------|-------------------------|
|-----------------------|-------------------------|
|-------9----7-----9----|--------5------4----5----|
|--5--------------------|--3----------------------|
|-----------------------|-------------------------|

|
|  E E  E E  E  E  E  E    E  E  E  E   Q    E  E

|-----------------------|-------------------------|
|---------8-10-12-13-12-|-13S17-17-15-17--17-19-|
|--9-8--9---------------|-------------------------|
|-----------------------|-------------------------|
|-----------------------|-------------------------|
|-----------------------|-------------------------|

|
|  E E  E E  E  E  E  E    E  E  E  E   Q    E  E

|-----------------------|-------------------------|
|-----------------------|-------------------------|
|---------9-11-12-14-12-|-14S17-17-16--17---17-19-|
|-10-9-10---------------|-------------------------|
|-----------------------|-------------------------|
|-----------------------|-------------------------|



   Q   Q    Q     Q     Q   Q    Q     Q

|--------------------|--------------------|
|--------------------|--------------------|
|--------------------|--------------------|
|------5----4-----5--|------7----5-----7--|
|--4-----------------|--5-----------------|
|--------------------|--------------------|

|
|  Q   E  Q    E  Q     Q   E  Q    E  Q

|-15--15-14---15-14--|-14--12-10---12-10--|
|--------------------|--------------------|
|--------------------|--------------------|
|--------------------|--------------------|
|--------------------|--------------------|
|--------------------|--------------------|

|
|  Q   E  Q    E  Q     Q   E  Q    E  Q

|--------------------|--------------------|
|-17--17-15---17-15--|-15--13-12---13-12--|
|--------------------|--------------------|
|--------------------|--------------------|
|--------------------|--------------------|
|--------------------|--------------------|



   Q   Q    Q     Q     Q   Q    Q     Q

|--------------------|--------------------|
|--------------------|--------------------|
|--------------------|--------------------|
|------9----7-----9--|------5----4-----5--|
|--5-----------------|--3-----------------|
|--------------------|--------------------|

|
|  Q   E  Q    E  Q     Q   E  Q    E  Q

|--------------------|--------------------|
|--------------------|--------------------|
|-12--12-11---12-11--|-----12-11---12-11--|
|--------------------|-14-----------------|
|--------------------|--------------------|
|--------------------|--------------------|

|
|  Q   E  Q    E  Q     Q   E  Q    E  Q

|--------------------|--------------------|
|--------------------|--------------------|
|--------------------|--------------------|
|-14--14-12---14-12--|-----14-12---14-12--|
|--------------------|-15-----------------|
|--------------------|--------------------|



   Q   Q    Q     Q     Q   Q   Q    Q

|--------------------|------------------|
|--------------------|------------------|
|--------------------|------------------|
|------5----4-----5--|------7---5----7--|
|--4-----------------|--5---------------|
|--------------------|------------------|

|
|  Q   E  Q    E  Q     Q   E Q    E Q

|--------------------|------------------|
|--------------------|------------------|
|-----12-11---12-11--|-11---9-8----9-9--|
|-14-----------------|------------------|
|--------------------|------------------|
|--------------------|------------------|

|
|  Q   E  Q    E  Q     Q   E Q    E Q

|--------------------|------------------|
|--------------------|------------------|
|--------------------|------------------|
|-----14-12---14-12--|-12--10-9---10-9--|
|-16-----------------|------------------|
|--------------------|------------------|



   Q   Q    Q     Q     Q   Q    Q     Q

|--------------------|----------------------|
|--------------------|----------------------|
|--------------------|----------------------|
|------9----7-----9--|------5----4-----5----|
|--5-----------------|--3-------------------|
|--------------------|----------------------|

|
|  Q   E  Q    E  Q     Q   E  Q    E  Q

|--------------------|----------------------|
|--------------------|----------------------|
|-12--12-11---12-11--|-----12-11---12-11----|
|--------------------|-14-------------------|
|--------------------|----------------------|
|--------------------|----------------------|

|
|  Q   E  Q    E  Q     Q   E  Q    E  E  E

|--------------------|----------------------|
|--------------------|----------------------|
|--------------------|-------------------11-|
|-14--14-12---14-12--|-----14-12---12-14----|
|--------------------|-15-------------------|
|--------------------|----------------------|



   W                                                 W

|------------------------------------------------|-------------||
|------------------------------------------------|-------------||
|------------------------------------------------|-------------||
|--7---------------------------------------------|---4---------||
|--5---------------------------------------------|---2---------||
|------------------------------------------------|-------------||

|
|                                                    ~~~~~~~~
|  S  S  S  S  S  S  S  S  S  S S  S  S  S  S  S     W

|------------------------------------------------|--15pb19r====||
|----------------------10-12-10-8-10-12-10-12-13-|-------------||
|-12-11--9-11-12-11-12---------------------------|-------------||
|------------------------------------------------|-------------||
|------------------------------------------------|-------------||
|------------------------------------------------|-------------||

|
|  S  S  S  S  S  S  S  S  S  S S  S  S  S  S  S     W

|------------------------------------------------|-15--------||
|---------------------------------------------10-|-------------||
|----------------------11-12-11-9-11-12-11-12----|-------------||
|-14-12-10-12-14-12-14---------------------------|-------------||
|------------------------------------------------|-------------||
|------------------------------------------------|-------------||



 Verse 1
  E S S S S S S S S S S S S S S   E S S S S E S S S S S S S S   W

|-------------------------------|-----------------------------|------|
|-------------------------------|-----------------------------|------|
|-------------------------------|-----------------------------|------|
|-2-----------------------------|-2---------2-----------------|------|
|-0-0-0-0-0-0-0-0-0-0-0-0-0-0-0-|-0-0-0-0-0-0-0-0-0-0-0-0-0-0-|-3----|
|-------------------------------|-----------------------------|-1----|



  W          E S S S S S S S S S S S S S S   E S S S S E S S S S S S S S

|----------|-------------------------------|-----------------------------|
|----------|-------------------------------|-----------------------------|
|----------|-------------------------------|-----------------------------|
|----------|-2-----------------------------|-2---------2-----------------|
|-5--------|-0-0-0-0-0-0-0-0-0-0-0-0-0-0-0-|-0-0-0-0-0-0-0-0-0-0-0-0-0-0-|
|-3--------|-------------------------------|-----------------------------|



  W          W          E S S S S E S S S S S S S S

|----------|----------|-----------------------------|
|----------|----------|-----------------------------|
|----------|----------|-----------------------------|
|-5--------|----------|-2---------2-----------------|
|-3--------|-5--------|-0-0-0-0-0-0-0-0-0-0-0-0-0-0-|
|----------|-3--------|-----------------------------|



  E S S S S E S S S S S S S S   W          W

|-----------------------------|----------|------|
|-----------------------------|----------|------|
|-----------------------------|----------|------|
|-2---------2-----------------|----------|------|
|-0-0-0-0-0-0-0-0-0-0-0-0-0-0-|-3--------|-5----|
|-----------------------------|-1--------|-3----|



  E S S S S E S S S S S S S S   E S S S S E S S S S S S S S   W          W

|-----------------------------|-----------------------------|----------|------||
|-----------------------------|-----------------------------|----------|------||
|-----------------------------|-----------------------------|----------|------||
|-2---------2-----------------|-2---------2-----------------|-5--------|------||
|-0-0-0-0-0-0-0-0-0-0-0-0-0-0-|-0-0-0-0-0-0-0-0-0-0-0-0-0-0-|-3--------|-5----||
|-----------------------------|-----------------------------|----------|-3----||



 Pre-Chorus
  W          +W           E S S S S S S S S S S S S S S

|----------|------------|-------------------------------|
|----------|------------|-------------------------------|
|----------|------------|-------------------------------|
|-2--------|-(2)--------|-------------------------------|
|-0--------|-(0)--------|-3-----------------------------|
|----------|------------|-1-1-1-1-1-1-1-1-1-1-1-1-1-1-1-|



  E S S S S E S S S S S S S S   W          +W

|-----------------------------|----------|--------|
|-----------------------------|----------|--------|
|-----------------------------|----------|--------|
|-----------------------------|-2--------|-(2)----|
|-3---------3-----------------|-0--------|-(0)----|
|-1-1-1-1-1-1-1-1-1-1-1-1-1-1-|----------|--------|



  W          W          W          +W           W          +W

|----------|----------|----------|------------|----------|--------|
|----------|----------|----------|------------|----------|--------|
|----------|----------|----------|------------|----------|--------|
|-5--------|----------|----------|------------|----------|--------|
|-3--------|-5--------|-2--------|-(2)--------|-3--------|-(3)----|
|----------|-3--------|-0--------|-(0)--------|-1--------|-(1)----|



  E S S S S S S S S S S S S S S   E S S S S E S S S S S S S S

|-------------------------------|-----------------------------|
|-------------------------------|-----------------------------|
|-------------------------------|-----------------------------|
|-7-----------------------------|-7---------7-----------------|
|-5-5-5-5-5-5-5-5-5-5-5-5-5-5-5-|-5-5-5-5-5-5-5-5-5-5-5-5-5-5-|
|-------------------------------|-----------------------------|



  E S S S S S S S S S S S S S S   E S S S S E S S S S S S S S

|-------------------------------|-----------------------------||
|-------------------------------|-----------------------------||
|-------------------------------|-----------------------------||
|-------------------------------|-----------------------------||
|-5-----------------------------|-5---------5-----------------||
|-3-3-3-3-3-3-3-3-3-3-3-3-3-3-3-|-3-3-3-3-3-3-3-3-3-3-3-3-3-3-||



 Chorus
   W                 W           W                 W

|-----------------|-----------|-----------------|-------|
|-----------------|-----------|-----------------|-------|
|-----------------|-----------|-----------------|-------|
|--2--------------|-----------|--5--------------|-------|
|--0--------------|--3--------|--3--------------|--5----|
|-----------------|--1--------|-----------------|--3----|

|
| Gtr II
|  Q.    Q.    Q     W           Q.    Q.    Q     W

|-----------------|-----------|-----------------|-------|
|-12----10--------|-10--------|-13----15----17--|-15----|
|-------------12--|-----------|-----------------|-------|
|-----------------|-----------|-----------------|-------|
|-----------------|-----------|-----------------|-------|
|-----------------|-----------|-----------------|-------|

|
| Gtr III
|  Q.    Q.    Q     W           Q.    Q.    Q     W

|-----------------|-----------|-----------------|-------|
|-----------------|-----------|-----------------|-------|
|--9-----9-----9--|-10--------|-12----16----17--|-16----|
|-----------------|-----------|-----------------|-------|
|-----------------|-----------|-----------------|-------|
|-----------------|-----------|-----------------|-------|



   W                 W                 W                 W

|-----------------|-----------------|----------------|---------------|
|-----------------|-----------------|----------------|---------------|
|-----------------|-----------------|----------------|---------------|
|--2--------------|-----------------|--5-------------|---------------|
|--0--------------|--3--------------|--3-------------|---5-----------|
|-----------------|--1--------------|----------------|---3-----------|

|
|  Q.    Q.    Q     Q.    Q.    Q     H.       E  E    +H.       Q

|-----------------|-----------------|----------------|---------------|
|-10--------------|-10----12----13--|-13-------10----|---------------|
|-------14----12--|-----------------|-------------12-|-(12)-------9--|
|-----------------|-----------------|----------------|---------------|
|-----------------|-----------------|----------------|---------------|
|-----------------|-----------------|----------------|---------------|

|
|  Q.    Q.    Q     Q.    Q.    Q     H.       E  E    +H.       Q

|-----------------|-----------------|----------------|---------------|
|-----------------|-----------------|----------------|---------------|
|--9-----9-----9--|-10----12----14--|-12--------9----|---------------|
|-----------------|-----------------|-------------12-|-(12)------10--|
|-----------------|-----------------|----------------|---------------|
|-----------------|-----------------|----------------|---------------|



   W                 W                 W                 W

|-----------------|-----------------|-----------------|-------|
|-----------------|-----------------|-----------------|-------|
|-----------------|-----------------|-----------------|-------|
|--2--------------|-----------------|--5--------------|-------|
|--0--------------|--3--------------|--3--------------|--5----|
|-----------------|--1--------------|-----------------|--3----|

|
|  Q.    Q.    Q     Q.    Q.    Q     Q.    Q.    Q     W

|-----------------|-----------------|-----------------|-------|
|-10--------------|-10----13----15--|-17----15----13--|-------|
|-------14----12--|-----------------|-----------------|-12----|
|-----------------|-----------------|-----------------|-------|
|-----------------|-----------------|-----------------|-------|
|-----------------|-----------------|-----------------|-------|

|
|  Q.    Q.    Q     Q.    Q.    Q     Q.    Q.    Q     W

|-----------------|-----------------|-----------------|-------|
|-----------------|-----------------|-----------------|-------|
|--9-----9-----9--|-10----14----16--|-17----16----14--|--7----|
|-----------------|-----------------|-----------------|-------|
|-----------------|-----------------|-----------------|-------|
|-----------------|-----------------|-----------------|-------|



   W                 W                 W                 W

|-----------------|-----------------|----------------|---------|
|-----------------|-----------------|----------------|---------|
|-----------------|-----------------|----------------|---------|
|--2--------------|-----------------|--5-------------|---------|
|--0--------------|--3--------------|--3-------------|---5-----|
|-----------------|--1--------------|----------------|---3-----|

|
|  Q.    Q.    Q     Q.    Q.    Q     H.       E  E    +W

|-----------------|-----------------|----------------|---------|
|-10--------------|-10----12----13--|-13-------10----|---------|
|-------14----12--|-----------------|-------------12-|-(12)----|
|-----------------|-----------------|----------------|---------|
|-----------------|-----------------|----------------|---------|
|-----------------|-----------------|----------------|---------|

|
|  Q.    Q.    Q     Q.    Q.    Q     H.       E  E    +W

|-----------------|-----------------|----------------|---------|
|-----------------|-----------------|----------------|---------|
|--9-----9-----9--|-10----12----14--|-12--------9----|---------|
|-----------------|-----------------|-------------12-|-(12)----|
|-----------------|-----------------|----------------|---------|
|-----------------|-----------------|----------------|---------|



  E S S S S E S S S S S S S S   E S S S S S S S S S S S S S S

|-----------------------------|-------------------------------|
|-----------------------------|-------------------------------|
|-----------------------------|-------------------------------|
|-2---------2-----------------|-2-----------------------------|
|-0-0-0-0-0-0-0-0-0-0-0-0-0-0-|-0-0-0-0-0-0-0-0-0-0-0-0-0-0-0-|
|-----------------------------|-------------------------------|



  E S S S S E S S S S S S S S   E S S S S E S S S S Q

|-----------------------------|------------------------|
|-----------------------------|------------------------|
|-5---------5-----------------|-5---------5---------5--|
|-3-3-3-3-3-3-3-3-3-3-3-3-3-3-|-3-3-3-3-3-3-3-3-3-3-3--|
|-----------------------------|------------------------|
|-----------------------------|------------------------|



  E S S S S E S S S S S S S S

|-------------------------------|
|-------------------------------|
|-7---------7-------------------|
|-5-5-5-5-5-5-5-5-5-5-5-5-5-5---|
|-------------------------------|
|-------------------------------|




   E S S S S E S S S S Q    Q  E Q  E E E   Q  E Q  E E E
|------------------------|---------------|---------------||
|------------------------|---------------|---------------||
|-7---------7---------7--|-9--7-9--------|-9--7-9--------||
|-5-5-5-5-5-5-5-5-5-5-5--|-7--5-7--------|-7--5-7--------||
|------------------------|-7--5-7--0-0-0-|-7--5-7--0-0-0-||
|------------------------|---------------|---------------||



 Verse 2
  E S S S S S S S S S S S S S S   E S S S S E S S S S S S S S   W

|-------------------------------|-----------------------------|------|
|-------------------------------|-----------------------------|------|
|-------------------------------|-----------------------------|------|
|-2-----------------------------|-2---------2-----------------|------|
|-0-0-0-0-0-0-0-0-0-0-0-0-0-0-0-|-0-0-0-0-0-0-0-0-0-0-0-0-0-0-|-3----|
|-------------------------------|-----------------------------|-1----|



  W          E S S S S S S S S S S S S S S   E S S S S E S S S S S S S S

|----------|-------------------------------|-----------------------------|
|----------|-------------------------------|-----------------------------|
|----------|-------------------------------|-----------------------------|
|----------|-2-----------------------------|-2---------2-----------------|
|-5--------|-0-0-0-0-0-0-0-0-0-0-0-0-0-0-0-|-0-0-0-0-0-0-0-0-0-0-0-0-0-0-|
|-3--------|-------------------------------|-----------------------------|



  W          W          E S S S S E S S S S S S S S

|----------|----------|-----------------------------|
|----------|----------|-----------------------------|
|----------|----------|-----------------------------|
|-5--------|----------|-2---------2-----------------|
|-3--------|-5--------|-0-0-0-0-0-0-0-0-0-0-0-0-0-0-|
|----------|-3--------|-----------------------------|



  E S S S S E S S S S S S S S   W          W

|-----------------------------|----------|------|
|-----------------------------|----------|------|
|-----------------------------|----------|------|
|-2---------2-----------------|----------|------|
|-0-0-0-0-0-0-0-0-0-0-0-0-0-0-|-3--------|-5----|
|-----------------------------|-1--------|-3----|



  E S S S S E S S S S S S S S   E S S S S E S S S S S S S S   W          W

|-----------------------------|-----------------------------|----------|------||
|-----------------------------|-----------------------------|----------|------||
|-----------------------------|-----------------------------|----------|------||
|-2---------2-----------------|-2---------2-----------------|-5--------|------||
|-0-0-0-0-0-0-0-0-0-0-0-0-0-0-|-0-0-0-0-0-0-0-0-0-0-0-0-0-0-|-3--------|-5----||
|-----------------------------|-----------------------------|----------|-3----||



 Pre-Chorus 2
  W          +W           E S S S S S S S S S S S S S S

|----------|------------|-------------------------------|
|----------|------------|-------------------------------|
|----------|------------|-------------------------------|
|-2--------|-(2)--------|-------------------------------|
|-0--------|-(0)--------|-3-----------------------------|
|----------|------------|-1-1-1-1-1-1-1-1-1-1-1-1-1-1-1-|



  E S S S S E S S S S S S S S   W          +W

|-----------------------------|----------|--------|
|-----------------------------|----------|--------|
|-----------------------------|----------|--------|
|-----------------------------|-2--------|-(2)----|
|-3---------3-----------------|-0--------|-(0)----|
|-1-1-1-1-1-1-1-1-1-1-1-1-1-1-|----------|--------|



  W          W          W          +W           W          +W

|----------|----------|----------|------------|----------|--------|
|----------|----------|----------|------------|----------|--------|
|----------|----------|----------|------------|----------|--------|
|-5--------|----------|----------|------------|----------|--------|
|-3--------|-5--------|-2--------|-(2)--------|-3--------|-(3)----|
|----------|-3--------|-0--------|-(0)--------|-1--------|-(1)----|



  E S S S S S S S S S S S S S S   E S S S S E S S S S S S S S

|-------------------------------|-----------------------------|
|-------------------------------|-----------------------------|
|-------------------------------|-----------------------------|
|-7-----------------------------|-7---------7-----------------|
|-5-5-5-5-5-5-5-5-5-5-5-5-5-5-5-|-5-5-5-5-5-5-5-5-5-5-5-5-5-5-|
|-------------------------------|-----------------------------|



  E S S S S S S S S S S S S S S   E S S S S E S S S S S S S S

|-------------------------------|-----------------------------||
|-------------------------------|-----------------------------||
|-------------------------------|-----------------------------||
|-------------------------------|-----------------------------||
|-5-----------------------------|-5---------5-----------------||
|-3-3-3-3-3-3-3-3-3-3-3-3-3-3-3-|-3-3-3-3-3-3-3-3-3-3-3-3-3-3-||



 Chorus
   W                 W           W                 W

|-----------------|-----------|-----------------|-------|
|-----------------|-----------|-----------------|-------|
|-----------------|-----------|-----------------|-------|
|--2--------------|-----------|--5--------------|-------|
|--0--------------|--3--------|--3--------------|--5----|
|-----------------|--1--------|-----------------|--3----|

|
| Gtr II
|  Q.    Q.    Q     W           Q.    Q.    Q     W

|-----------------|-----------|-----------------|-------|
|-12----10--------|-10--------|-13----15----17--|-15----|
|-------------12--|-----------|-----------------|-------|
|-----------------|-----------|-----------------|-------|
|-----------------|-----------|-----------------|-------|
|-----------------|-----------|-----------------|-------|

|
| Gtr III
|  Q.    Q.    Q     W           Q.    Q.    Q     W

|-----------------|-----------|-----------------|-------|
|-----------------|-----------|-----------------|-------|
|--9-----9-----9--|-10--------|-12----16----17--|-16----|
|-----------------|-----------|-----------------|-------|
|-----------------|-----------|-----------------|-------|
|-----------------|-----------|-----------------|-------|



   W                 W                 W                 W

|-----------------|-----------------|----------------|---------------|
|-----------------|-----------------|----------------|---------------|
|-----------------|-----------------|----------------|---------------|
|--2--------------|-----------------|--5-------------|---------------|
|--0--------------|--3--------------|--3-------------|---5-----------|
|-----------------|--1--------------|----------------|---3-----------|

|
|  Q.    Q.    Q     Q.    Q.    Q     H.       E  E    +H.       Q

|-----------------|-----------------|----------------|---------------|
|-10--------------|-10----12----13--|-13-------10----|---------------|
|-------14----12--|-----------------|-------------12-|-(12)-------9--|
|-----------------|-----------------|----------------|---------------|
|-----------------|-----------------|----------------|---------------|
|-----------------|-----------------|----------------|---------------|

|
|  Q.    Q.    Q     Q.    Q.    Q     H.       E  E    +H.       Q

|-----------------|-----------------|----------------|---------------|
|-----------------|-----------------|----------------|---------------|
|--9-----9-----9--|-10----12----14--|-12--------9----|---------------|
|-----------------|-----------------|-------------12-|-(12)------10--|
|-----------------|-----------------|----------------|---------------|
|-----------------|-----------------|----------------|---------------|



   W                 W                 W                 W

|-----------------|-----------------|-----------------|-------|
|-----------------|-----------------|-----------------|-------|
|-----------------|-----------------|-----------------|-------|
|--2--------------|-----------------|--5--------------|-------|
|--0--------------|--3--------------|--3--------------|--5----|
|-----------------|--1--------------|-----------------|--3----|

|
|  Q.    Q.    Q     Q.    Q.    Q     Q.    Q.    Q     W

|-----------------|-----------------|-----------------|-------|
|-10--------------|-10----13----15--|-17----15----13--|-------|
|-------14----12--|-----------------|-----------------|-12----|
|-----------------|-----------------|-----------------|-------|
|-----------------|-----------------|-----------------|-------|
|-----------------|-----------------|-----------------|-------|

|
|  Q.    Q.    Q     Q.    Q.    Q     Q.    Q.    Q     W

|-----------------|-----------------|-----------------|-------|
|-----------------|-----------------|-----------------|-------|
|--9-----9-----9--|-10----14----16--|-17----16----14--|--7----|
|-----------------|-----------------|-----------------|-------|
|-----------------|-----------------|-----------------|-------|
|-----------------|-----------------|-----------------|-------|



   W                 W                 W                 W

|-----------------|-----------------|----------------|---------|
|-----------------|-----------------|----------------|---------|
|-----------------|-----------------|----------------|---------|
|--2--------------|-----------------|--5-------------|---------|
|--0--------------|--3--------------|--3-------------|---5-----|
|-----------------|--1--------------|----------------|---3-----|

|
|  Q.    Q.    Q     Q.    Q.    Q     H.       E  E    +W

|-----------------|-----------------|----------------|---------|
|-10--------------|-10----12----13--|-13-------10----|---------|
|-------14----12--|-----------------|-------------12-|-(12)----|
|-----------------|-----------------|----------------|---------|
|-----------------|-----------------|----------------|---------|
|-----------------|-----------------|----------------|---------|

|
|  Q.    Q.    Q     Q.    Q.    Q     H.       E  E    +W

|-----------------|-----------------|----------------|---------|
|-----------------|-----------------|----------------|---------|
|--9-----9-----9--|-10----12----14--|-12--------9----|---------|
|-----------------|-----------------|-------------12-|-(12)----|
|-----------------|-----------------|----------------|---------|
|-----------------|-----------------|----------------|---------|



  E S S S S E S S S S S S S S   E S S S S E S S S S Q

|-----------------------------|-------------------------|
|-----------------------------|-------------------------|
|-----------------------------|-------------------------|
|-2---------2-----------------|-2---------2---------2---|
|-0-0-0-0-0-0-0-0-0-0-0-0-0-0-|-0-0-0-0-0-0-0-0-0-0-0---|
|-----------------------------|-------------------------|



  E S S S S E S S S S S S S S   E S S S S E S S S S Q

|-----------------------------|------------------------|
|-----------------------------|------------------------|
|-5---------5-----------------|-5---------5---------5--|
|-3-3-3-3-3-3-3-3-3-3-3-3-3-3-|-3-3-3-3-3-3-3-3-3-3-3--|
|-----------------------------|------------------------|
|-----------------------------|------------------------|



  E S S S S E S S S S S S S S

|-------------------------------|
|-------------------------------|
|-7---------7-------------------|
|-5-5-5-5-5-5-5-5-5-5-5-5-5-5---|
|-------------------------------|
|-------------------------------|




   E S S S S E S S S S Q    Q  E Q  E E E   Q  E Q  E E E
|------------------------|---------------|---------------|
|------------------------|---------------|---------------|
|-7---------7---------7--|-9--7-9--------|-9--7-9--------|
|-5-5-5-5-5-5-5-5-5-5-5--|-7--5-7--------|-7--5-7--------|
|------------------------|-7--5-7--0-0-0-|-7--5-7--0-0-0-|
|------------------------|---------------|---------------|



  E S S S S E S S S S S S S S   E S S S S E S S S S Q

|-----------------------------|-------------------------|
|-----------------------------|-------------------------|
|-----------------------------|-------------------------|
|-2---------2-----------------|-2---------2---------2---|
|-0-0-0-0-0-0-0-0-0-0-0-0-0-0-|-0-0-0-0-0-0-0-0-0-0-0---|
|-----------------------------|-------------------------|



  E S S S S E S S S S S S S S   E S S S S E S S S S Q

|-----------------------------|------------------------|
|-----------------------------|------------------------|
|-5---------5-----------------|-5---------5---------5--|
|-3-3-3-3-3-3-3-3-3-3-3-3-3-3-|-3-3-3-3-3-3-3-3-3-3-3--|
|-----------------------------|------------------------|
|-----------------------------|------------------------|



  E S S S S E S S S S S S S S

|-------------------------------|
|-------------------------------|
|-7---------7-------------------|
|-5-5-5-5-5-5-5-5-5-5-5-5-5-5---|
|-------------------------------|
|-------------------------------|




   E S S S S E S S S S Q    Q  E Q  E E E   Q  E Q  E E E
|------------------------|---------------|---------------||
|------------------------|---------------|---------------||
|-7---------7---------7--|-9--7-9--------|-9--7-9--------||
|-5-5-5-5-5-5-5-5-5-5-5--|-7--5-7--------|-7--5-7--------||
|------------------------|-7--5-7--0-0-0-|-7--5-7--0-0-0-||
|------------------------|---------------|---------------||



 Keyboard Solo 1

   Wx15          W          W          W          W          E E E E E Q.
|-------------|----------|----------|----------|----------|-----------------|
|-------------|----------|----------|----------|----------|-----------------|
|-------------|----------|----------|----------|----------|-----------------|
|-------------|----------|----------|----------|----------|-----------------|
|-------------|-7--------|-7--------|-3--------|-5--------|-7---7---7-------|
|-------------|-5--------|-5--------|-1--------|-3--------|-5---5---5-------|



  W          W          W          E E E E E Q.

|----------|----------|----------|----------------||
|----------|----------|----------|----------------||
|----------|----------|----------|----------------||
|----------|----------|----------|----------------||
|-5--------|-3--------|-2--------|-2---2---2------||
|-3--------|-1--------|-0--------|-0---0---0------||



 Solo 1
  E   S S S S S  S S S S S S S S S

|----------------------------------|
|----------------------------------|
|----------------------------------|
|-2--------------------------------|
|-0---0-0-0-0-0--0-0-0-0-0-0-0-0-0-|
|----------------------------------|

|
| Gtr II
| Q.          Q.           Q

|----------------------------------|
|----------------------------------|
|-7b9---------7------------5-------|
|----------------------------------|
|----------------------------------|
|----------------------------------|



  E S S S S E S S S S S S S S   W

|-----------------------------|--------------------------|
|-----------------------------|--------------------------|
|-----------------------------|--------------------------|
|-2---------2-----------------|--------------------------|
|-0-0-0-0-0-0-0-0-0-0-0-0-0-0-|-3------------------------|
|-----------------------------|-1------------------------|

|
| E E   E   Q     E   E   E     E.. +T    E E E E E S S

|-----------------------------|--------------------------|
|-------------------------5---|-5---(5)b6---6---5--------|
|-4-5-----------------5-------|---------------------7-5--|
|-----------7-----7-----------|--------------------------|
|-----------------------------|--------------------------|
|-----------------------------|--------------------------|



  W                 E    S   S    S S S  S S S  S S S S S S

|-----------------|-----------------------------------------|
|-----------------|-----------------------------------------|
|-----------------|-----------------------------------------|
|-----------------|-2---------------------------------------|
|-5---------------|-0----0---0----0-0-0--0-0-0--0-0-0-0-0-0-|
|-3---------------|-----------------------------------------|

|
| ~~~~~~~~~~~~         T          T      T      T
|          |-3--|        |--3--|
| H.      +E  E E   S  S S S   S  S S S  S S S  S S S S S S

|-----------------|---------------------------------------8-|
|-----------------|-------------------------------------8---|
|-7-------(7)-5-7-|-9-17-7p5h==9-17-7h9-17-7p5-12-5h7h9-----|
|-----------------|-----------------------------------------|
|-----------------|-----------------------------------------|
|-----------------|-----------------------------------------|



   E     S S  S S E    S  S  S S  S  S  S S

|---------------------------------------------|
|---------------------------------------------|
|---------------------------------------------|
|--2--------------2---------------------------|
|--0-----0-0--0-0-0----0--0--0-0--0--0--0-0---|
|---------------------------------------------|

|
|  S  S  S S  S S S S  S  S  S S  S  S  S S

|-10-12-10-8--------8-10-12-10-8--------------|
|------------12-8----------------12-10--------|
|-----------------9--------------------12-9---|
|---------------------------------------------|
|---------------------------------------------|
|---------------------------------------------|



   W                     W

|---------------------|------------------------|
|---------------------|------------------------|
|---------------------|------------------------|
|--5------------------|------------------------|
|--3------------------|--5---------------------|
|---------------------|--3---------------------|

|
|  E E  E  E E  Q   E    E  E  E  E     +H

|---------------------|------------------------|
|---------13----------|-13-12-13-13b15-(13)----|
|-12-9-12------12--12-|------------------------|
|---------------------|------------------------|
|---------------------|------------------------|
|---------------------|------------------------|



   E    S  S  S S  E  S  S  S  S  S S  S S

|------------------------------------------|
|------------------------------------------|


|------------------------------------------|
|--2---------------2-----------------------|
|--0----0--0--0-0--0--0--0--0--0--0-0--0-0-|
|------------------------------------------|
|
|  S S  S  S  E    E  S  S  S  S  E    E
|------------------------------------------|
|-10-9-10-12-13---10-15-10-12-17-13---10---|

|------------------------------------------|
|------------------------------------------|


|------------------------------------------|
|------------------------------------------|



   E     S  S  S S  E  S  S  S  S  S S  S S

|-------------------------------------------|
|-------------------------------------------|
|-------------------------------------------|
|--2----------------2-----------------------|
|--0-----0--0--0-0--0--0--0--0--0--0-0--0-0-|
|-------------------------------------------|

|
|  S  S  S  S  E    E  S  S  S  S  E    E

|-15-12------------12-13-12-----------------|
|-------15-13-15------------15-13-15---13---|
|-------------------------------------------|
|-------------------------------------------|
|-------------------------------------------|
|-------------------------------------------|



  W

|---------------------------------------------|
|---------------------------------------------|
|---------------------------------------------|
|---------------------------------------------|
|-3-------------------------------------------|
|-1-------------------------------------------|

|
| S S S S  S  S  S  S  S  S  S  S  S  S  S  S

|---------------------------------------13-13-|
|---------------------------------13-13-------|
|---------------10-10-10-10-10-10-------------|
|---------10-10-------------------------------|
|-8-8-8-8-------------------------------------|
|---------------------------------------------|



   W

|-------------------------------------------------------|
|-------------------------------------------------------|
|-------------------------------------------------------|
|-------------------------------------------------------|
|--5----------------------------------------------------|
|--3----------------------------------------------------|

|
|                          |------------3-------------|
|  S  S  S  S  S  S  S  S  S  S  S  S  S  S S S S S S S

|-------------19-19-22-22-------------------------------|
|-20-20-20-20-------20-20-15S14S13S12S11S10S9S8S7S6S5S4-|
|-------------------------------------------------------|
|-------------------------------------------------------|
|-------------------------------------------------------|
|-------------------------------------------------------|



   E     S  S  S  S  E    S  S S  S  S  S  S  S

|-----------------------------------------------|
|-----------------------------------------------|
|-----------------------------------------------|
|--2-----------------2--------------------------|
|--0-----0--0--0--0--0----0--0-0--0--0--0--0--0-|
|-----------------------------------------------|

|
|  S  S  S  S  S  S  S S  S  S S  S  S  S  S  S

|-12-10-----------------------------------------|
|-------13-12-10--------------------------------|
|----------------12-10-9------------------------|
|------------------------12-10-9----------------|
|--------------------------------12-10----------|
|--------------------------------------13-12-10-|



   E     S  S  S S  E     S    S     S  S  S  S  S  S

|-----------------------------------------------------|
|-----------------------------------------------------|
|-----------------------------------------------------|
|--2----------------2---------------------------------|
|--0-----0--0--0-0--0-----0----0-----0--0--0--0--0--0-|
|-----------------------------------------------------|

|
|                         |---3---|
|  S  S  S  S  S S  S  S  S  S    S  S  S  S  S  S  S

|---------------------------10---12-10----10----------|
|-13-12-10---------------13------------13----13-12-10-|
|----------12-10-9------------------------------------|
|------------------12-10------------------------------|
|-----------------------------------------------------|
|-----------------------------------------------------|



    W                                        W

|-----------------------------------------|--------------------------||
|-----------------------------------------|--------------------------||
|-----------------------------------------|--------------------------||
|---5-------------------------------------|--------------------------||
|---3-------------------------------------|--5-----------------------||
|-----------------------------------------|--3-----------------------||

|
|                                                            ~~~~~
|   E    E   S  S  S  S  E  S  S  E  S  S    S S  E  e   E   H

|-----------12-13----10-12-12-10-------10-|-12S8S15-19-20-20b22----||
|-----------------10-------------13-13----|--------------------------||
|-12-12-------------------------------|--------------------------||
|-----------------------------------------|--------------------------||
|-----------------------------------------|--------------------------||
|-----------------------------------------|--------------------------||



 Keyboard Solo 2
  E5/B                    F
  Gtr IV
  W          +W           W
  |           |           |
  /           /           /

  W          +W           E S S S S S S S S S S S S S S

|----------|------------|-------------------------------|
|----------|------------|-------------------------------|
|----------|------------|-------------------------------|
|-2--------|-(2)--------|-------------------------------|
|-0--------|-(0)--------|-3-----------------------------|
|----------|------------|-1-1-1-1-1-1-1-1-1-1-1-1-1-1-1-|



                                 E5/B
  +W                             W          +W
   |                             |           |
   /                             /           /

   E S S S S E S S S S S S S S   W          +W

|------------------------------|----------|--------|
|------------------------------|----------|--------|
|------------------------------|----------|--------|
|------------------------------|-2--------|-(2)----|
|--3---------3-----------------|-0--------|-(0)----|
|--1-1-1-1-1-1-1-1-1-1-1-1-1-1-|----------|--------|



  C/G        G          A5/E                    C/G
  W          W          W          +W           W          +W
  |          |          |           |           |           |
  /          /          /           /           /           /

  W          W          W          +W           W          +W

|----------|----------|----------|------------|----------|--------|
|----------|----------|----------|------------|----------|--------|
|----------|----------|----------|------------|----------|--------|
|-5--------|----------|----------|------------|----------|--------|
|-3--------|-5--------|-2--------|-(2)--------|-3--------|-(3)----|
|----------|-3--------|-0--------|-(0)--------|-1--------|-(1)----|



  D5
  W                               +W
  |                                |
  /                                /

  E S S S S S S S S S S S S S S    E S S S S E S S S S S S S S

|-------------------------------|------------------------------|
|-------------------------------|------------------------------|
|-------------------------------|------------------------------|
|-7-----------------------------|--7---------7-----------------|
|-5-5-5-5-5-5-5-5-5-5-5-5-5-5-5-|--5-5-5-5-5-5-5-5-5-5-5-5-5-5-|
|-------------------------------|------------------------------|



  G
  W                               +W
  |                                |
  /                                /

  E S S S S S S S S S S S S S S    E S S S S E S S S S S S S S

|-------------------------------|------------------------------||
|-------------------------------|------------------------------||
|-------------------------------|------------------------------||
|-------------------------------|------------------------------||
|-5-----------------------------|--5---------5-----------------||
|-3-3-3-3-3-3-3-3-3-3-3-3-3-3-3-|--3-3-3-3-3-3-3-3-3-3-3-3-3-3-||



 Solo 2
   Q        Q           Q        Q

|-------------------------------------------|
|-------------------------------------------|
|-------------------------------------------|
|--2----------------------------------------|
|--0--------------------5-------------------|
|-----------------------3-------------------|

|
| Gtr II
|  E  S  S  S  S  S  S  E  S  S  S  S  S  S

|----12-13-15-13-12----------10-12-10-------|
|-13----------------15-12-13----------13-12-|
|-------------------------------------------|
|-------------------------------------------|
|-------------------------------------------|
|-------------------------------------------|

|
| Gtr III
|  E  S  S  S  S  S  S  E  S  S  S  S  S  S

|-------------------------------------------|
|----13-15-17-15-13----------12-13-12-------|
|-14----------------16-12-14----------14-12-|
|-------------------------------------------|
|-------------------------------------------|
|-------------------------------------------|



   Q        Q           Q        Q             Q        Q           Q        Q

|-------------------------------------------|-------------------------------------------|
|-------------------------------------------|-------------------------------------------|
|-------------------------------------------|-------------------------------------------|
|-------------------------------------------|--2----------------------------------------|
|--3--------------------5-------------------|--0--------------------5-------------------|
|--1--------------------3-------------------|-----------------------3-------------------|

|
|  E  S  S  S  S  S  S  E  S  S  S  S  S  S    E  S  S  S  S  S  S  E  S  S  S  S  S  S

|-------10-12-10-------------12-13-12-------|----12-13-15-13-12----------10-12-10-------|
|-10-13----------13-10-12-15----------15-13-|-13----------------15-12-13----------13-12-|
|-------------------------------------------|-------------------------------------------|
|-------------------------------------------|-------------------------------------------|
|-------------------------------------------|-------------------------------------------|
|-------------------------------------------|-------------------------------------------|

|
|  E  S  S  S  S  S  S  E  S  S  S  S  S  S    E  S  S  S  S  S  S  E  S  S  S  S  S  S

|-------------------------------------------|-------------------------------------------|
|-------12-13-12-------------13-15-13-------|----13-15-17-15-13----------12-13-12-------|
|-10-14----------14-10-12-16----------16-14-|-14----------------16-12-14----------14-12-|
|-------------------------------------------|-------------------------------------------|
|-------------------------------------------|-------------------------------------------|
|-------------------------------------------|-------------------------------------------|



   Q        Q           Q        Q

|-------------------------------------------|
|-------------------------------------------|
|-------------------------------------------|
|-------------------------------------------|
|--3--------------------5-------------------|
|--1--------------------3-------------------|

|
|  E  S  S  S  S  S  S  E  S  S  S  S  S  S

|-------10-12-10-------------12-13-12-------|
|-10-13----------13-10-12-15----------15-13-|
|-------------------------------------------|
|-------------------------------------------|
|-------------------------------------------|
|-------------------------------------------|

|
|  E  S  S  S  S  S  S  E  S  S  S  S  S  S

|-------------------------------------------|
|-------12-13-12-------------13-15-13-------|
|-10-14----------14-10-12-16----------16-14-|
|-------------------------------------------|
|-------------------------------------------|
|-------------------------------------------|



   Q        Q           Q        Q             Q        Q           Q        Q

|-------------------------------------------|-------------------------------------------|
|-------------------------------------------|-------------------------------------------|
|-------------------------------------------|-------------------------------------------|
|--2--------------------5-------------------|-----------------------5-------------------|
|--0--------------------3-------------------|--5--------------------3-------------------|
|-------------------------------------------|--3----------------------------------------|

|
|  E  S  S  S  S  S  S  E  S  S  S  S  S  S    E  S  S  S  S  S  S  E  S  S  S  S  S  S

|----12-13-15-13-12----------10-12-10-------|----12-13-15-13-12-------12-13-15-13-12----|
|-13----------------15-12-13----------13-12-|-15----------------15-12----------------15-|
|-------------------------------------------|-------------------------------------------|
|-------------------------------------------|-------------------------------------------|
|-------------------------------------------|-------------------------------------------|
|-------------------------------------------|-------------------------------------------|

|
|  E  S  S  S  S  S  S  E  S  S  S  S  S  S    E  S  S  S  S  S  S  E  S  S  S  S  S  S

|-------------------------------------------|-------------------------------------------|
|----13-15-17-15-13----------12-13-12-------|----13-15-17-15-13-------13-15-17-15-13----|
|-14----------------16-12-14----------14-12-|-16----------------16-12----------------16-|
|-------------------------------------------|-------------------------------------------|
|-------------------------------------------|-------------------------------------------|
|-------------------------------------------|-------------------------------------------|



   Q        Q           Q        Q

|-------------------------------------------|
|-------------------------------------------|
|-------------------------------------------|
|--2--------------------5-------------------|
|--0--------------------3-------------------|
|-------------------------------------------|

|
|  E  S  S  S  S  S  S  E  S  S  S  S  S  S

|----12-13-15-13-12-------12-13-15-13-12----|
|-13----------------15-12----------------13-|
|-------------------------------------------|
|-------------------------------------------|
|-------------------------------------------|
|-------------------------------------------|

|
|  E  S  S  S  S  S  S  E  S  S  S  S  S  S

|-------------------------------------------|
|----13-15-17-15-13-------13-15-17-15-13----|
|-14----------------16-12----------------14-|
|-------------------------------------------|
|-------------------------------------------|
|-------------------------------------------|



   Q        Q           Q        Q             Q        Q           Q        Q

|-------------------------------------------|-------------------------------------------|
|-------------------------------------------|-------------------------------------------|
|-------------------------------------------|-------------------------------------------|
|-----------------------5-------------------|--2----------------------------------------|
|--5--------------------3-------------------|--0--------------------5-------------------|
|--3----------------------------------------|-----------------------3-------------------|

|
|  E  S  S  S  S  S  S  E  S  S  S  S  S  S    E  S  S  S  S  S  S  E  S  S  S  S  S  S

|----12-13-15-13-12-------12-13-15-13-12----|----12-13-15-13-12----------10-12-10-------|
|-15----------------15-13----------------15-|-13----------------15-12-13----------13-12-|
|-------------------------------------------|-------------------------------------------|
|-------------------------------------------|-------------------------------------------|
|-------------------------------------------|-------------------------------------------|
|-------------------------------------------|-------------------------------------------|

|
|  E  S  S  S  S  S  S  E  S  S  S  S  S  S    E  S  S  S  S  S  S  E  S  S  S  S  S  S

|-------------------------------------------|-------------------------------------------|
|----13-15-17-15-13-------13-15-17-15-13----|----13-15-17-15-13----------12-13-12-------|
|-16----------------16-12----------------16-|-14----------------16-12-14----------14-12-|
|-------------------------------------------|-------------------------------------------|
|-------------------------------------------|-------------------------------------------|
|-------------------------------------------|-------------------------------------------|



   Q        Q           Q        Q            W

|-------------------------------------------|-----------------------------------------------|
|-------------------------------------------|-----------------------------------------------|
|-------------------------------------------|-----------------------------------------------|
|-----------------------7-------------------|-2---------------------------------------------|
|--3--------------------5-------------------|-2---------------------------------------------|
|--1----------------------------------------|-0---------------------------------------------|

|
|  E  S  S  S  S  S  S  E  S  S  S  S  S  S   S  S S  S  S  S  S  S  S  S  S  S  S  S  S  S

|-------10-12-10----------------------------|-----------------------12h13p12h13-16h17p16h17-|
|-10-13----------13-12-10-12-13-15-13-12-10-|-9h10p9h10-12h13p12h13-------------------------|
|-------------------------------------------|-----------------------------------------------|
|-------------------------------------------|-----------------------------------------------|
|-------------------------------------------|-----------------------------------------------|
|-------------------------------------------|-----------------------------------------------|

|
|  E  S  S  S  S  S  S  E  S  S  S  S  S  S   S  S S  S  S  S  S  S  S  S  S  S  S  S  S  S

|-------------------------------------------|-----------------------------------------------|
|-------12-13-12----------------------------|-----------------------12h13p12h13-17h18p17h18-|
|-10-14----------14-12-10-12-14-16-14-12-10-|-9h10p9h10-13h14p13h14-------------------------|
|-------------------------------------------|-----------------------------------------------|
|-------------------------------------------|-----------------------------------------------|
|-------------------------------------------|-----------------------------------------------|




    E     E     E     E     E     E     E     E
|---------------------------------------------------||
|---------------------------------------------------||
|---------------------------------------------------||
|---------------------------------------------------||
|--2-----------3-----------5-----------3------------||
|--0-----------1-----------3-----------1------------||

|
|  S  S  S  S  S  S  S  S  S  S  S  S  S  S  S  S

|-19h20p19h20p19h20p19h20p19h20p19h20p19h20p19h20---||
|---------------------------------------------------||
|---------------------------------------------------||
|---------------------------------------------------||
|---------------------------------------------------||
|---------------------------------------------------||

|
|  S  S  S  S  S  S  S  S  S  S  S  S  S  S  S  S

|---------------------------------------------------||
|-21h22p21h22p21h22p21h22p21h22p21h22p21h22p21h22---||
|---------------------------------------------------||
|---------------------------------------------------||
|---------------------------------------------------||
|---------------------------------------------------||



 Solo 3
   E     S  S  S  S  S  S  S  S  S  S S  S  S  S

|------------------------------------------------|
|------------------------------------------------|
|------------------------------------------------|
|------------------------------------------------|
|--7---------------------------------------------|
|--5-----5--5--5--5--5--5--5--5--5--5-5--5--5--5-|

|
|        T     T           T     T          T
|  S  S  S  S  S  S  S  S  S  S  S  S S  S  S  S

|--8-12-15-12-15-12--8-12-13-10-13-10-7-10-13-10-|
|------------------------------------------------|
|------------------------------------------------|
|------------------------------------------------|
|------------------------------------------------|
|------------------------------------------------|

|
|        T     T           T     T          T
|  S  S  S  S  S  S  S  S  S  S  S  S S  S  S  S

|------------------------------------------------|
|-10-13-17-13-17-13-10-13-15-12-15-12-8-12-15-12-|
|------------------------------------------------|
|------------------------------------------------|
|------------------------------------------------|
|------------------------------------------------|



  S  S  S  S  S  S S  S  S  S  S  S S  S  S  S

|----------------------------------------------|
|----------------------------------------------|
|----------------------------------------------|
|----------------------------------------------|
|----------------------------------------------|
|-1--1--1--1--1--1-1--1--3--3--3--3-3--3--3--3-|

|
|       T     T          T     T          T
| S  S  S  S  S  S S  S  S  S  S  S S  S  S  S

|-5--8-12--8-12--8-5--8-13-10-13-10-7-10-13-10-|
|----------------------------------------------|
|----------------------------------------------|
|----------------------------------------------|
|----------------------------------------------|
|----------------------------------------------|

|
|       T     T          T     T          T
| S  S  S  S  S  S S  S  S  S  S  S S  S  S  S

|----------------------------------------------|
|-6-10-13-10-13-10-6-10-15-12-15-12-8-12-15-12-|
|----------------------------------------------|
|----------------------------------------------|
|----------------------------------------------|
|----------------------------------------------|



   S  S  S  S  S  S  S  S  S  S  S  S S  S  S  S

|------------------------------------------------|
|------------------------------------------------|
|------------------------------------------------|
|------------------------------------------------|
|------------------------------------------------|
|--5--5--5--5--5--5--5--5--3--3--3--3-3--3--3--3-|

|
|        T     T           T     T          T
|  S  S  S  S  S  S  S  S  S  S  S  S S  S  S  S

|--8-12-15-12-15-12--8-12-13-10-13-10-7-10-13-10-|
|------------------------------------------------|
|------------------------------------------------|
|------------------------------------------------|
|------------------------------------------------|
|------------------------------------------------|

|
|        T     T           T     T          T
|  S  S  S  S  S  S  S  S  S  S  S  S S  S  S  S

|------------------------------------------------|
|-10-13-17-13-17-13-10-13-15-12-15-12-8-12-15-12-|
|------------------------------------------------|
|------------------------------------------------|
|------------------------------------------------|
|------------------------------------------------|



  S  S  S  S  S  S S  S  S  S  S  S S  S  S  S

|----------------------------------------------|
|----------------------------------------------|
|----------------------------------------------|
|----------------------------------------------|
|----------------------------------------------|
|-1--1--1--1--1--1-1--1--3--3--3--3-3--3--3--3-|

|
|       T     T          T     T          T
| S  S  S  S  S  S S  S  S  S  S  S S  S  S  S

|-5--8-12--8-12--8-5--8-13-10-13-10-7-10-13-10-|
|----------------------------------------------|
|----------------------------------------------|
|----------------------------------------------|
|----------------------------------------------|
|----------------------------------------------|

|
|       T     T          T     T          T
| S  S  S  S  S  S S  S  S  S  S  S S  S  S  S

|----------------------------------------------|
|-6-10-13-10-13-10-6-10-15-12-15-12-8-12-15-12-|
|----------------------------------------------|
|----------------------------------------------|
|----------------------------------------------|
|----------------------------------------------|



   H                       H

|------------------------------------------------|
|------------------------------------------------|
|--------------------------5---------------------|
|--7-----------------------5---------------------|
|--7-----------------------3---------------------|
|--5---------------------------------------------|

|
|        T     T           T     T          T
|  S  S  S  S  S  S  S  S  S  S  S  S S  S  S  S

|--8-12-15-12-15-12--8-12-15-12-15-12-8-12-15-12-|
|------------------------------------------------|
|------------------------------------------------|
|------------------------------------------------|
|------------------------------------------------|
|------------------------------------------------|

|
|        T     T           T     T          T
|  S  S  S  S  S  S  S  S  S  S  S  S S  S  S  S

|------------------------------------------------|
|-10-13-17-13-17-13-10-13-17-13-17-13-8-13-17-13-|
|------------------------------------------------|
|------------------------------------------------|
|------------------------------------------------|
|------------------------------------------------|



   H                       H

|------------------------------------------------|
|------------------------------------------------|
|--------------------------5---------------------|
|--5-----------------------5---------------------|
|--5-----------------------3---------------------|
|--3---------------------------------------------|

|
|        T     T           T     T          T
|  S  S  S  S  S  S  S  S  S  S  S  S S  S  S  S

|--8-10-13-10-13-10--8-10-15-12-15-12-8-12-15-12-|
|------------------------------------------------|
|------------------------------------------------|
|------------------------------------------------|
|------------------------------------------------|
|------------------------------------------------|

|
|        T     T           T     T          T
|  S  S  S  S  S  S  S  S  S  S  S  S S  S  S  S

|------------------------------------------------|
|-10-12-15-12-15-12-10-12-17-13-17-13-8-13-17-13-|
|------------------------------------------------|
|------------------------------------------------|
|------------------------------------------------|
|------------------------------------------------|



   H                       H

|------------------------------------------------|
|------------------------------------------------|
|--------------------------5---------------------|
|--7-----------------------5---------------------|
|--7-----------------------3---------------------|
|--5---------------------------------------------|

|
|        T     T           T     T          T
|  S  S  S  S  S  S  S  S  S  S  S  S S  S  S  S

|--8-12-15-12-15-12--8-12-15-12-15-12-8-12-15-12-|
|------------------------------------------------|
|------------------------------------------------|
|------------------------------------------------|
|------------------------------------------------|
|------------------------------------------------|

|
|        T     T           T     T          T
|  S  S  S  S  S  S  S  S  S  S  S  S S  S  S  S

|------------------------------------------------|
|-10-13-17-13-17-13-10-13-17-13-17-13-8-13-17-13-|
|------------------------------------------------|
|------------------------------------------------|
|------------------------------------------------|
|------------------------------------------------|



   H                       H

|------------------------------------------------|
|------------------------------------------------|
|--------------------------5---------------------|
|--5-----------------------5---------------------|
|--5-----------------------3---------------------|
|--3---------------------------------------------|

|
|        T     T           T     T          T
|  S  S  S  S  S  S  S  S  S  S  S  S S  S  S  S

|--8-10-13-10-13-10--8-10-15-12-15-12-8-12-15-12-|
|------------------------------------------------|
|------------------------------------------------|
|------------------------------------------------|
|------------------------------------------------|
|------------------------------------------------|

|
|        T     T           T     T          T
|  S  S  S  S  S  S  S  S  S  S  S  S S  S  S  S

|------------------------------------------------|
|-10-12-15-12-15-12-10-12-17-13-17-13-8-13-17-13-|
|------------------------------------------------|
|------------------------------------------------|
|------------------------------------------------|
|------------------------------------------------|



   E     S  S  S  S  S  S  S  S S S S  S  S  S

|----------------------------------------------|
|----------------------------------------------|
|----------------------------------------------|
|----------------------------------------------|
|--7-------------------------------------------|
|--5-----5--5--5--5--5--5--3--3-3-3-3--3--3--3-|

|
|        T     T           T              T
|  S  S  S  S  S  S  S  S  S  S S S S  S  S  S

|--8-12-15-12-15-12--8-12-13-10-7---7-10-13-10-|
|---------------------------------8------------|
|----------------------------------------------|
|----------------------------------------------|
|----------------------------------------------|
|----------------------------------------------|

|
|        T     T           T              T
|  S  S  S  S  S  S  S  S  S  S S S S  S  S  S

|----------------------------------------------|
|-10-13-17-13-17-13-10-13-15-12-8---8-12-15-12-|
|---------------------------------7------------|
|----------------------------------------------|
|----------------------------------------------|
|----------------------------------------------|



  S  S  S  S  S  S S  S  S  S  S  S S  S  S  S

|----------------------------------------------|
|----------------------------------------------|
|----------------------------------------------|
|----------------------------------------------|
|------------------------5--5--5--5-5--5--5--5-|
|-1--1--1--1--1--1-1--1------------------------|

|
|       T     T          T     T          T
| S  S  S  S  S  S S  S  S  S  S  S S  S  S  S

|-5--8-12--8-12--8-5--8-12--8-12--8-5--8-12--8-|
|----------------------------------------------|
|----------------------------------------------|
|----------------------------------------------|
|----------------------------------------------|
|----------------------------------------------|

|
|       T     T          T     T          T
| S  S  S  S  S  S S  S  S  S  S  S S  S  S  S

|----------------------------------------------|
|-6-10-13-10-13-10-6-10-13-10-13-10-6-10-13-10-|
|----------------------------------------------|
|----------------------------------------------|
|----------------------------------------------|
|----------------------------------------------|



   W

|-------------------------------------------------|
|-------------------------------------------------|
|-------------------------------------------------|
|--2----------------------------------------------|
|--2----------------------------------------------|
|--0----------------------------------------------|

|
|  S  S  S  S  S  S  S  S  S  S  S  S  S  S  S  S

|-12h13p12h13p12h13p12h13p12h13p12h13p12h13p12h13-|
|-------------------------------------------------|
|-------------------------------------------------|
|-------------------------------------------------|
|-------------------------------------------------|
|-------------------------------------------------|

|
|  S  S  S  S  S  S  S  S  S  S  S  S  S  S  S  S

|-------------------------------------------------|
|-12h13p12h13p12h13p12h13p12h13p12h13p12h13p12h13-|
|-------------------------------------------------|
|-------------------------------------------------|
|-------------------------------------------------|
|-------------------------------------------------|




     E    E   E    E   E    E   E    E
|---------------------------------------||
|---------------------------------------||
|---------------------------------------||
|---------------------------------------||
|---2--------3--------5--------3--------||
|---0--------1--------3--------1--------||

|
|   E    E   E    E   E    E   E    E

|-/19b25---/19b25---/19b25---/19b25r====||
|---------------------------------------||
|---------------------------------------||
|---------------------------------------||
|---------------------------------------||
|---------------------------------------||

|
|   E    E   E    E   E    E   E.     S

|-/15b21---/15b21---/15b21---/15b21r====||
|---------------------------------------||
|---------------------------------------||
|---------------------------------------||
|---------------------------------------||
|---------------------------------------||



 Solo 4
   W                        +W

|-------------------------|-------------------|
|-------------------------|-------------------|
|-------------------------|-------------------|
|--5----------------------|-(5)---------------|
|--3----------------------|-(3)---------------|
|-------------------------|-------------------|

|
|                                          ~~~~
|  E  E  E  E  E  E  E  E    W             a

|----------10-12-10----12-|-13b15--------(13)-|
|-13----13----------13----|-------------------|
|----12-------------------|-------------------|
|-------------------------|-------------------|
|-------------------------|-------------------|
|-------------------------|-------------------|

|
|  E  E  E  E  E  E  E  E    W

|-------------------------|-------------------|
|----------12-13-12----12-|-15b17-------------|
|-12----12----------14----|-------------------|
|----14-------------------|-------------------|
|-------------------------|-------------------|
|-------------------------|-------------------|



        W                     +W

|---------------------------|-----------------------|
|---------------------------|-----------------------|
|---------------------------|-----------------------|
|---------------------------|-----------------------|
|-------3-------------------|-(3)-------------------|
|-------1-------------------|-(1)-------------------|

|
|                                        ~~~~~~~~~~
|       Q      E  Q   Q   E    Q      E  Q.    +Q

|------13b15r=13-13--12-----|-----------------------|
|------------------------13-|-13b15-----------------|
|---------------------------|--------12-12----(12)--|
|---------------------------|-----------------------|
|---------------------------|-----------------------|
|---------------------------|-----------------------|

|
|                                        ~~~~~~~~~~
|   a   Q      E  Q   Q   E    Q      E  Q.    +Q

|---------------------------|-----------------------|
|-(15)-15b17r=15-15--13--10-|-10b12-----------------|
|---------------------------|---------9--9-----(9)--|
|---------------------------|-----------------------|
|---------------------------|-----------------------|
|---------------------------|-----------------------|



   W

|-------------------------------------------------|
|-------------------------------------------------|
|-------------------------------------------------|
|--7----------------------------------------------|
|--5----------------------------------------------|
|-------------------------------------------------|

|
|  T     T     T     T     T     T     T     T
|  S  S  S  S  S  S  S  S  S  S  S  S  S  S  S  S

|-------------------------------------------------|
|-------------------------------------------------|
|-------------------------------------19-10-19-10-|
|-------------------------19-12-19-12-------------|
|-------------20-12-20-12-------------------------|
|-22-13-22-13-------------------------------------|

|
|  T     T     T     T     T     T     T     T
|  S  S  S  S  S  S  S  S  S  S  S  S  S  S  S  S

|-------------------------------------------------|
|-------------------------------------------------|
|-------------------------------------14--7-14--7-|
|-------------------------15--7-15--7-------------|
|-------------17--8-17--8-------------------------|
|-17-10-17-10-------------------------------------|



  +W

|--------------------------------------------------|
|--------------------------------------------------|
|--------------------------------------------------|
|-(7)----------------------------------------------|
|-(5)----------------------------------------------|
|--------------------------------------------------|

|
|  T      T     T     T     T     T     T     T
|  S   S  S  S  S  S  S  S  S  S  S  S  S  S  S  S

|--------------17-13-17-13-18-10-------------------|
|-18--10-18-10-------------------18-10-------------|
|--------------------------------------19-10-------|
|--------------------------------------------19-12-|
|--------------------------------------------------|
|--------------------------------------------------|

|
|  T      T     T     T     T     T     T     T
|  S   S  S  S  S  S  S  S  S  S  S  S  S  S  S  S

|--------------13-10-13-10-13--5-------------------|
|-15---6-15--6-------------------15--6-------------|
|--------------------------------------14--7-------|
|--------------------------------------------15--7-|
|--------------------------------------------------|
|--------------------------------------------------|




   W

|-------------------------------------------------|
|-------------------------------------------------|
|-------------------------------------------------|
|--5----------------------------------------------|
|--3----------------------------------------------|
|-------------------------------------------------|

|
|  T     T     T     T     T     T     T     T
|  S  S  S  S  S  S  S  S  S  S  S  S  S  S  S  S

|-20-15-20-15-19-12-17-12-17-13-17-13-15-10-13-10-|
|-------------------------------------------------|
|-------------------------------------------------|
|-------------------------------------------------|
|-------------------------------------------------|
|-------------------------------------------------|

|
|  T     T     T     T     T     T     T     T
|  S  S  S  S  S  S  S  S  S  S  S  S  S  S  S  S

|-------------------------------------------------|
|-22-17-22-17-20-13-18-13-18-15-18-15-17-12-15-12-|
|-------------------------------------------------|
|-------------------------------------------------|
|-------------------------------------------------|
|-------------------------------------------------|



   W

|-------------------------------------------|
|-------------------------------------------|
|-------------------------------------------|
|-------------------------------------------|
|--5----------------------------------------|
|--3----------------------------------------|

|
|  T     T     T     T
|                                   |--3--|
|  S  S  S  S  S  S  S  S S +Q   S  S  S  S

|-13-12-13-12-12--8-10--8-8-(8)S=x-------15-|
|-------------------------------------17----|
|----------------------------------17-------|
|-------------------------------------------|
|-------------------------------------------|
|-------------------------------------------|

|
|  T     T     T     T
|                                   |--3--|
|  S  S  S  S  S  S  S  S S +Q   S  S  S  S

|-------------------------8-(8)S=x----------|
|-15-13-15-13-13-10-12-10----------------17-|
|-------------------------------------17----|
|----------------------------------17-------|
|-------------------------------------------|
|-------------------------------------------|



   W

|-------------------------------------------------|
|-------------------------------------------------|
|-------------------------------------------------|
|--5----------------------------------------------|
|--3----------------------------------------------|
|-------------------------------------------------|

|
|  S  S  S  S  S  S  S  S  S  S  S  S  S  S  S  S

|-20-15----------------15-20-15----------------15-|
|-------17----------17----------17----------17----|
|----------17----17----------------17----17-------|
|-------------17----------------------17----------|
|-------------------------------------------------|
|-------------------------------------------------|

|
|  S  S  S  S  S  S  S  S  S  S  S  S  S  S  S  S

|-15-12----------------12-15-12----------------12-|
|-------13----------13----------13----------13----|
|----------12----12----------------12----12-------|
|-------------14----------------------14----------|
|-------------------------------------------------|
|-------------------------------------------------|



  +W

|--------------------------------------------------|
|--------------------------------------------------|
|--------------------------------------------------|
|-(5)----------------------------------------------|
|-(3)----------------------------------------------|
|--------------------------------------------------|

|
|  S   S  S  S  S  S  S  S  S  S  S  S  S  S  S  S

|-20--15----------------15-22-19----19-22-19----19-|
|--------17----------17----------20----------20----|
|-----------17----17-------------------------------|
|--------------17----------------------------------|
|--------------------------------------------------|
|--------------------------------------------------|

|
|  S   S  S  S  S  S  S  S  S  S  S  S  S  S  S  S

|-15--12----------------12-19-15----15-19-15-12-15-|
|--------13----------13----------17----------------|
|-----------12----12-------------------------------|
|--------------14----------------------------------|
|--------------------------------------------------|
|--------------------------------------------------|



   W

|-------------------------------------------------|
|-------------------------------------------------|
|-------------------------------------------------|
|-------------------------------------------------|
|--3----------------------------------------------|
|--1----------------------------------------------|

|
|  S  S  S  S  S  S  S  S  S  S  S  S  S  S  S  S

|-------------------------------------------------|
|-22-18----------------18-22-18----------------18-|
|-------17----------17----------17----------17----|
|----------19----19----------------19----19-------|
|-------------20----------------------20----------|
|-------------------------------------------------|

|
|  S  S  S  S  S  S  S  S  S  S  S  S  S  S  S  S

|-------------------------------------------------|
|-------------------------------------------------|
|-22-17----------------17-22-17----------------17-|
|-------19----------19----------19----------19----|
|----------20----20----------------20----20-------|
|-------------20----------------------20----------|



  +W

|--------------------------------------------|
|--------------------------------------------|
|--------------------------------------------|
|--------------------------------------------|
|-(3)----------------------------------------|
|-(1)----------------------------------------|

|
|  S   S  S  S  S  S  S  S  E     E  E     E

|--------------------------20b24r17-20b24r17-|
|-22--18----------------18-------------------|
|--------17----------17----------------------|
|-----------19----19-------------------------|
|--------------20----------------------------|
|--------------------------------------------|

|
|  S   S  S  S  S  S  S  S  E     E  E     E

|--------------------------------------------|
|--------------------------22b25r18-22b25r18-|
|-22--17----------------17-------------------|
|--------19----------19----------------------|
|-----------20----20-------------------------|
|--------------20----------------------------|



   W                                     +W

|--------------------------------------|----------------------|
|--------------------------------------|----------------------|
|--------------------------------------|----------------------|
|--7-----------------------------------|-(7)------------------|
|--5-----------------------------------|-(5)------------------|
|--------------------------------------|----------------------|

|
|                                                   ~~~~~~~
|  Q      E     E     E     E     E  E    Q      E  E  +H

|--------------------------------------|----------------------|
|-17b19--17b19-17b19-17b19-17b19-17----|-15b17-----15-(15)----|
|-----------------------------------17-|--------17------------|
|--------------------------------------|----------------------|
|--------------------------------------|----------------------|
|--------------------------------------|----------------------|

|
|                                                   ~~~~~~~
|  Q      E     E     E     E     E  E    Q      E  E  +H

|--------------------------------------|----------------------|
|-13b15--13b15-13b15-13b15-13b15-13----|-12b13-----12-(12)----|
|-----------------------------------14-|--------14------------|
|--------------------------------------|----------------------|
|--------------------------------------|----------------------|
|--------------------------------------|----------------------|



   W                                         W

|-----------------------------------------|----------------------||
|-----------------------------------------|----------------------||
|-----------------------------------------|----------------------||
|--5--------------------------------------|----------------------||
|--3--------------------------------------|--5-------------------||
|-----------------------------------------|--3-------------------||

|
|     T        T        T              ~~~~~~~~~
|  S  S  S  S  S  S  S  S  S  S  S  S  Q     Q.    E  Q.       E

|-------------------------------12-15-20--|-22----20-22tr19------||
|----------------------------13-----------|----------------------||
|-------------------12-17-12--------------|----------------------||
|----------14-17-14-----------------------|----------------------||
|-15-19-15--------------------------------|----------------------||
|-----------------------------------------|----------------------||

|
|     T        T        T                    ~~~      ~~~~~~
|  S  S  S  S  S  S  S  S  S  S  S  S  Q     Q.    E  Q.     E

|----------------------------------12-17--|-19----17-15----------||
|-------------------------------13--------|----------------------||
|----------------------------12-----------|----------------------||
|-------------------14-17-14--------------|----------------------||
|----------15-19-15-----------------------|----------------------||
|-15-20-15--------------------------------|----------------------||



 Chorus
   W                 W           W                 W

|-----------------|-----------|-----------------|-------|
|-----------------|-----------|-----------------|-------|
|-----------------|-----------|-----------------|-------|
|--2--------------|-----------|--5--------------|-------|
|--0--------------|--3--------|--3--------------|--5----|
|-----------------|--1--------|-----------------|--3----|

|
|  Q.    Q.    Q     W           Q.    Q.    Q     W

|-----------------|-----------|-----------------|-------|
|-12----10--------|-10--------|-13----15----17--|-15----|
|-------------12--|-----------|-----------------|-------|
|-----------------|-----------|-----------------|-------|
|-----------------|-----------|-----------------|-------|
|-----------------|-----------|-----------------|-------|

|
|  Q.    Q.    Q     W           Q.    Q.    Q     W

|-----------------|-----------|-----------------|-------|
|-----------------|-----------|-----------------|-------|
|--9-----9-----9--|-10--------|-12----16----17--|-16----|
|-----------------|-----------|-----------------|-------|
|-----------------|-----------|-----------------|-------|
|-----------------|-----------|-----------------|-------|



   W                 W                 W                 W

|-----------------|-----------------|----------------|---------------|
|-----------------|-----------------|----------------|---------------|
|-----------------|-----------------|----------------|---------------|
|--2--------------|-----------------|--5-------------|---------------|
|--0--------------|--3--------------|--3-------------|---5-----------|
|-----------------|--1--------------|----------------|---3-----------|

|
|  Q.    Q.    Q     Q.    Q.    Q     H.       E  E    +H.       Q

|-----------------|-----------------|----------------|---------------|
|-10--------------|-10----12----13--|-13-------10----|---------------|
|-------14----12--|-----------------|-------------12-|-(12)-------9--|
|-----------------|-----------------|----------------|---------------|
|-----------------|-----------------|----------------|---------------|
|-----------------|-----------------|----------------|---------------|

|
|  Q.    Q.    Q     Q.    Q.    Q     H.       E  E    +H.       Q

|-----------------|-----------------|----------------|---------------|
|-----------------|-----------------|----------------|---------------|
|--9-----9-----9--|-10----12----14--|-12--------9----|---------------|
|-----------------|-----------------|-------------12-|-(12)------10--|
|-----------------|-----------------|----------------|---------------|
|-----------------|-----------------|----------------|---------------|



   W                 W                 W                 W

|-----------------|-----------------|-----------------|-------|
|-----------------|-----------------|-----------------|-------|
|-----------------|-----------------|-----------------|-------|
|--2--------------|-----------------|--5--------------|-------|
|--0--------------|--3--------------|--3--------------|--5----|
|-----------------|--1--------------|-----------------|--3----|

|
|  Q.    Q.    Q     Q.    Q.    Q     Q.    Q.    Q     W

|-----------------|-----------------|-----------------|-------|
|-10--------------|-10----13----15--|-17----15----13--|-------|
|-------14----12--|-----------------|-----------------|-12----|
|-----------------|-----------------|-----------------|-------|
|-----------------|-----------------|-----------------|-------|
|-----------------|-----------------|-----------------|-------|

|
|  Q.    Q.    Q     Q.    Q.    Q     Q.    Q.    Q     W

|-----------------|-----------------|-----------------|-------|
|-----------------|-----------------|-----------------|-------|
|--9-----9-----9--|-10----14----16--|-17----16----14--|--7----|
|-----------------|-----------------|-----------------|-------|
|-----------------|-----------------|-----------------|-------|
|-----------------|-----------------|-----------------|-------|



   W                 W                 W                 W

|-----------------|-----------------|----------------|---------|
|-----------------|-----------------|----------------|---------|
|-----------------|-----------------|----------------|---------|
|--2--------------|-----------------|--5-------------|---------|
|--0--------------|--3--------------|--3-------------|---5-----|
|-----------------|--1--------------|----------------|---3-----|

|
|  Q.    Q.    Q     Q.    Q.    Q     H.       E  E    +W

|-----------------|-----------------|----------------|---------|
|-10--------------|-10----12----13--|-13-------10----|---------|
|-------14----12--|-----------------|-------------12-|-(12)----|
|-----------------|-----------------|----------------|---------|
|-----------------|-----------------|----------------|---------|
|-----------------|-----------------|----------------|---------|

|
|  Q.    Q.    Q     Q.    Q.    Q     H.       E  E    +W

|-----------------|-----------------|----------------|---------|
|-----------------|-----------------|----------------|---------|
|--9-----9-----9--|-10----12----14--|-12--------9----|---------|
|-----------------|-----------------|-------------12-|-(12)----|
|-----------------|-----------------|----------------|---------|
|-----------------|-----------------|----------------|---------|



 Out-Chorus
   W                 W           W                 W

|-----------------|-----------|-----------------|-------|
|-----------------|-----------|-----------------|-------|
|-----------------|-----------|-----------------|-------|
|--2--------------|-----------|--5--------------|-------|
|--0--------------|--3--------|--3--------------|--5----|
|-----------------|--1--------|-----------------|--3----|

|
|  Q.    Q.    Q     W           Q.    Q.    Q     W

|-----------------|-----------|-----------------|-------|
|-13----10--------|-10--------|-13----15----17--|-15----|
|-------------12--|-----------|-----------------|-------|
|-----------------|-----------|-----------------|-------|
|-----------------|-----------|-----------------|-------|
|-----------------|-----------|-----------------|-------|

|
|                    ~~                            ~~
|  Q.    Q.    Q     W           Q.    Q.    Q     W

|-----------------|-----------|-----------------|-------|
|-----------------|-----------|-----------------|-------|
|-14-----9--------|-10--------|-12----16----17--|-16----|
|-------------12--|-----------|-----------------|-------|
|-----------------|-----------|-----------------|-------|
|-----------------|-----------|-----------------|-------|



   W                 W                 W           +W

|-----------------|-----------------|-----------|---------|
|-----------------|-----------------|-----------|---------|
|-----------------|-----------------|-----------|---------|
|--2--------------|-----------------|-----------|---------|
|--0--------------|--3--------------|--5--------|--(5)----|
|-----------------|--1--------------|--3--------|--(3)----|

|
|  Q.    Q.    Q     Q.    Q.    Q     W           +W

|-----------------|-----------------|-----------|---------|
|-10----13----15--|-17----15----13--|-12--------|-(12)----|
|-----------------|-----------------|-----------|---------|
|-----------------|-----------------|-----------|---------|
|-----------------|-----------------|-----------|---------|
|-----------------|-----------------|-----------|---------|

|
|                                      ~~~~~~~~~~~~~~~~
|  Q.    Q.    Q     Q.    Q.    Q     W           +W

|-----------------|-----------------|-----------|---------|
|-----------------|-----------------|-----------|---------|
|--9----14----14--|-17----14----14--|-12--------|-(12)----|
|-----------------|-----------------|-----------|---------|
|-----------------|-----------------|-----------|---------|
|-----------------|-----------------|-----------|---------|



   E  S S S S  S  S S S S S  S S S S    E S S S S E S S S S E S S

|------------------------------------|----------------------------|
|------------------------------------|----------------------------|
|------------------------------------|----------------------------|
|--2---------------------------------|----------------------------|
|--0--0-0-0-0--0--0-0-0-0-0--0-0-0-0-|--3---------3---------3-----|
|------------------------------------|--1-1-1-1-1-1-1-1-1-1-1-1-1-|

|
|  Q.          Q.            Q          W

|------------------------------------|----------------------------|
|-13----------10---------------------|-10-------------------------|
|---------------------------12-------|----------------------------|
|------------------------------------|----------------------------|
|------------------------------------|----------------------------|
|------------------------------------|----------------------------|

|
|                                       ~~
|  Q.          Q.            Q          W

|------------------------------------|----------------------------|
|------------------------------------|----------------------------|
|-14-----------9---------------------|-10-------------------------|
|---------------------------12-------|----------------------------|
|------------------------------------|----------------------------|
|------------------------------------|----------------------------|



   E  S S S S  S  S S S S S  S S S S    E S S S S E S S S S E S S

|------------------------------------|----------------------------|
|------------------------------------|----------------------------|
|------------------------------------|----------------------------|
|--5---------------------------------|----------------------------|
|--3--3-3-3-3--3--3-3-3-3-3--3-3-3-3-|--5---------5---------5-----|
|------------------------------------|--3-3-3-3-3-3-3-3-3-3-3-3-3-|

|
|  Q.          Q.            Q          W

|------------------------------------|----------------------------|
|-13----------15------------17-------|-15-------------------------|
|------------------------------------|----------------------------|
|------------------------------------|----------------------------|
|------------------------------------|----------------------------|
|------------------------------------|----------------------------|

|
|                                       ~~
|  Q.          Q.            Q          W

|------------------------------------|----------------------------|
|------------------------------------|----------------------------|
|-12----------16------------17-------|-16-------------------------|
|------------------------------------|----------------------------|
|------------------------------------|----------------------------|
|------------------------------------|----------------------------|



   E  S S S S  S  S S S S S  S S S S    E  S S S S  E  E E  E S S

|------------------------------------|-----------------------------|
|------------------------------------|-----------------------------|
|------------------------------------|-----------------------------|
|--2---------------------------------|--2-----------2--2----2------|
|--0--0-0-0-0--0--0-0-0-0-0--0-0-0-0-|--0--0-0-0-0--0--0-5--0-0-0--|
|------------------------------------|-------------------3---------|

|
|  Q.          Q.            Q          Q.          Q.      Q

|------------------------------------|-----------------------------|
|-10----------13------------15-------|-17----------15------13------|
|------------------------------------|-----------------------------|
|------------------------------------|-----------------------------|
|------------------------------------|-----------------------------|
|------------------------------------|-----------------------------|

|
|  Q.          Q.            Q          Q.          Q.      Q

|------------------------------------|-----------------------------|
|------------------------------------|-----------------------------|
|--9----------14------------14-------|-17----------14------14------|
|------------------------------------|-----------------------------|
|------------------------------------|-----------------------------|
|------------------------------------|-----------------------------|



   E S S S S S S S S S S S S S S    E  S S S S  E  S S S S  E S S

|--------------------------------|--------------------------------|
|--------------------------------|--------------------------------|
|--4-----------------------------|--4-----------4-----------4-----|
|--2-2-2-2-2-2-2-2-2-2-2-2-2-2-2-|--2--2-2-2-2--2--2-2-2-2--2-2-2-|
|--------------------------------|--------------------------------|
|--------------------------------|--------------------------------|

|
|  W                                Q.          Q.          Q

|--------------------------------|--------------------------------|
|-12-----------------------------|-13----------12-----------------|
|--------------------------------|-------------------------12-----|
|--------------------------------|--------------------------------|
|--------------------------------|--------------------------------|
|--------------------------------|--------------------------------|

|
|  ~~
|  W                                Q.          Q.          Q

|--------------------------------|--------------------------------|
|--------------------------------|--------------------------------|
|-12-----------------------------|-14----------12-----------------|
|--------------------------------|-------------------------12-----|
|--------------------------------|--------------------------------|
|--------------------------------|--------------------------------|



   E S S S S E E E E S S     E  S S S S E E E E S S   W          W

|------------------------|--------------------------|----------|------*|
|------------------------|--------------------------|----------|------*|
|------------------------|--------------------------|-9S=======|=x----*|
|--2---------2-2---2-----|---2----------2-2---2-----|-7S=======|=x----*|
|--0-0-0-0-0-0-0-5-0-0-0-|---0--0-0-0-0-0-0-5-0-0-0-|-7S=======|=x----*|
|----------------3-------|------------------3-------|----------|------*|

|
|  W                        +W                        W          W

|------------------------|--------------------------|----------|------*|
|-10---------------------|-(10)---------------------|----------|------*|
|------------------------|--------------------------|----------|------*|
|------------------------|--------------------------|----------|------*|
|------------------------|--------------------------|----------|------*|
|------------------------|--------------------------|----------|------*|

|
|  ~~~~~~~~~~~~~~~~~~~~~~~~~~~~~
|  W                        +W                        W          W

|------------------------|--------------------------|----------|------*|
|------------------------|--------------------------|----------|------*|
|--9---------------------|--(9)---------------------|----------|------*|
|------------------------|--------------------------|----------|------*|
|------------------------|--------------------------|----------|------*|
|------------------------|--------------------------|----------|------*|




Duration Legend

---------------

W - whole; H - half; Q - quarter; E - 8th; S - 16th; T - 32nd; X - 64th; a - acciaccatura
+ - note tied to previous; . - note dotted; .. - note double dotted
Uncapitalized letters represent notes that are staccato (1/2 duration)
Irregular groupings are notated above the duration line
Duration letters will always appear directly above the note/fret number it represents the
duration for.  Duration letters with no fret number below them represent rests.  Multi-
bar rests are notated in the form Wxn, where n is the number of bars to rest for.  Low
melody durations appear below the staff

Tablature Legend
-
---------------

 h   - hammer-on
 p   - pull-off
 b   - bend
 pb  - pre-bend
 r   - bend release (if no number after the r, then release immediately)
 /\  - slide into or out of (from/to "nowhere")
 s   - legato slide
 S   - shift slide
 - natural harmonic
n  - artificial harmonic
n(n) - tapped harmonic
 ~   - vibrato
 tr  - trill
 T   - tap
 TP  - trem. picking
 PM  - palm muting
\n/  - tremolo bar dip; n = amount to dip
 \n  - tremolo bar down
 n/  - tremolo bar up
/n\  - tremolo bar inverted dip
 =   - hold bend; also acts as connecting device for hammers/pulls
 <> - volume swell (louder/softer)
 x   - on rhythm slash represents muted slash
 o   - on rhythm slash represents single note slash 
	  

No existe una video leccione para esta canción

request
Aumentar uno tonoAumentar uno tono
Aumentar uno semi-tonoAumentar uno semi-tono
Disminuir uno semi-tonoDisminuir uno semi-tono
Disminuir uno tonoDisminuir uno semi-tono
LosAcordes
Buscar
auto avanzar rasgueos aumentar disminuir cambiar color esconder acordes gráficos
losacordes exhibir acordes losacordes youTube video losacordes ocultar tabs losacordes ir hacia arriba losacordes