Dogstar

Início > Dogstar > acordes

Honesty Anyway Tablatura

Dogstar

Dificultad:Ningún gradoNingún grado

jessgomes

tuner correct add songbook print version text version salvar en e-mail
acordesukuleletablaturabajobateríaarmónicaflautacavacopiano Guitar Pro
acordes

Honesty Anyway

	  (intro / verso) 
     e|-------------|-------------|-------------|-------------| 
     B|---1-0-1-0---|---1-0-1-0---|---1-0-1-0---|---1-0-1-0---| 
     G|-----------0-|-----------0-|-----------0-|-----------0-| 
     D|-------------|-------------|-------------|-------------| 
     A|-3-----------|-3-----------|-0-----------|-0-----------| 
     E|-------------|-------------|-------------|-------------| 

(pré-Refrão) 
     e|-----------------|-----------------|-----------------|-----------------| 
     G|-----------------|-----------------|-----------------|-----------------| 
     B|-----------------|-----------------|-----------------|-----------------| 
     D|-3---3---3-3-3---|-5-5-5---5-5-5---|-7---7---7-7-7---|-7-7-7---7-7-7---| 
     A|-3---3---3-3-3---|-5-5-5---5-5-5---|-7---7---7-7-7---|-7-7-7---7-7-7---| 
     E|-1---1---1-1-1---|-3-3-3---3-3-3---|-5---5---5-5-5---|-5-5-5---5-5-5---| 

(Refrão / outro) 
     e|----------------|---------------------|----------------|---------------------| 
     G|----------------|---------------------|----------------|---------------------| 
     B|----------------|---------5-5-5---5-5-|----------------|---------5-5-5---5-5-| 
     D|-/3---3---5-5-5-|-7-7-7---5-5-5---5-5-|-/3---3---5-5-5-|-7-7-7---5-5-5---5-5-| 
     A|-/3---3---5-5-5-|-7-7-7---3-3-3---3-3-|-/3---3---5-5-5-|-7-7-7---3-3-3---3-3-| 
     E|-/1---1---3-3-3-|-5-5-5---------------|-/1---1---3-3-3-|-5-5-5---------------| 

     e|----------------|---------------------|----------------|---------------------|-------| 
     G|----------------|---------------------|----------------|---------------------|-------| 
     B|----------------|---------5-5-5---5-5-|----------------|---------5-5-5---5-5-|-7---5-| 
     D|-/3---3---5-5-5-|-7-7-7---5-5-5---5-5-|-/3---3---5-5-5-|-7-7-7---5-5-5---5-5-|-5---3-| 
     A|-/3---3---5-5-5-|-7-7-7---3-3-3---3-3-|-/3---3---5-5-5-|-7-7-7---3-3-3---3-3-|-5---3-| 
     E|-/1---1---3-3-3-|-5-5-5---------------|-/1---1---3-3-3-|-5-5-5---------------|-------| 

(intro 2x) 

(verso) 
     On the first night I ever saw you 
     From the first time I ever felt your skin 

(pré-Refrão 1) 
     I figured things a little strange 
     As I began to re-arrange myself 

(verso) 
     When the first sunlight started to appear 
     I would turn to see if you were here 

(pré-Refrão 2) 
     I harboured not a single doubt 
     I Just had to find what you're about inside 
     And I couldn't seem to say, "Good night," 
     Until I heard you say, "Alright," to me 

(Refrão) 
     Excuse me, my dear, just had to say 
     It's hell without you here 
     And all my dreams are full of fear 
     But there's honesty anyway 

(verso) 
     The first time I knew I made a choice 
     Is when I heard the low-down sullen sound of your voice 

(pré-Refrão 2) 

(Refrão) 

(Refrão) 
     Just had to let you know 
     Feels like hell when you're not home 
     And I sleep all alone 
     But there's honesty anyway 
	  

No existe una video leccione para esta canción

request
LosAcordes
Buscar
auto avanzar rasgueos aumentar disminuir cambiar color esconder acordes gráficos
losacordes exhibir acordes losacordes youTube video losacordes ocultar tabs losacordes ir hacia arriba losacordes