Do As Infinity

Início > Do As Infi... > acordes

Tadaima Tablatura

Do As Infinity

Dificultad:Ningún gradoNingún grado

tuner correct add songbook print version text version salvar en e-mail
acordesukuleletablaturabajobateríaarmónicaflautacavacopiano Guitar Pro
acordes

Tadaima

	  *A música está meio tom acima do original* 
 
Intro Riff: 
    G                      B                      C 
E||----------------------|----------------------|----------------------| 
B||------------3---------|------------3---------|------------3---------| 
G||-------0---------0----|-------0---------0----|-------0---------0----| 
D||----------------------|----------------------|----------------------| 
A||----------------------|--2-------------------|--3-------------------| 
E||--3-------------------|----------------------|----------------------| 
 
  D#                     E                      D                           
----------------------|----------------------|----------------------| 
------------3---------|------------3---------|------------3---------| 
-------0---------0----|-------0---------0----|-------0---------0----| 
--1-------------------|--2-------------------|--0-------------------| 
----------------------|----------------------|----------------------| 
----------------------|----------------------|----------------------| 
 
 
 C                                              C       
----------------------|--0-------------------|--0----|| 
------------3---------|-------3--------------|--1----|| 
-------0---------0----|------------0---------|--0----|| 
----------------------|-----------------2----|--2----|| 
--3-------------------|----------------------|--3----|| 
----------------------|----------------------|-------|| 
 
 G  Bm     C	    D#	     Em 
Slowmotion de   Jikan toori ni 
  D	C						 
Kimi wo noseta   Densha ga sotto suberikomu 
E||--------------------|-------------------|| 
B||--8----7/3-3--5-5---|--8---7/10----8----|| 
G||--------------------|-------------------|| 
D||--------------------|-------------------|| 
A||--------------------|-------------------|| 
E||--------------------|-------------------|| 
 
C                    D          
Toiki mo shiroi   Kaisatsuguchi de 
Bm                              C 
Tsuma sakidachi shite   Kimi wo matteiru 
C                    D 
Yuube wa nenai de Kangaete ita 
Bm                       C 
Kotae wa sagasezu Asa wa yatte kita 
 
C Bm Am               C  Bm   Am 
Mou    Nani mo iwanai yo 
                C   Bm  Am 
Futatsu kan KOOHII 
	Cm	D 
Nigirishimeta   Mama de 
 
  G    Bm        C        B          Em 
Dare demo tsumazuki   Sukoshi tsukarete 
  D   C 
Nakitaku naru 
 G    Bm      C         B       Em 
Utsumukanai mama   Tama ikitsukazu 
  D     C 
Mune wo hatte 
C 
Kikasete kudasai   "TADAIMA" to 
B||--8----7/3-3--5-5----|--8----7/10----8----|| 
 
C            D        Bm       C 
Umaku ikanai to   Tegami mo hette 
C             D            Bm        C 
Hashaida egao mo   Shashin tate no naka 
C                D        Bm    C 
Kyuukogatsu furi no   Rusubandenwa 
C              D          Bm          C 
Touchakujikoku to   Kasukana susuri naki 
 
C   Bm Am                 C  Bm Am 
Sou        Katta maketaka wa 
                 C Bm Am 
Kimi ga kimeru koto 
	   Cm	   D 
Korekara   Zutto   Saki ni 
 
 
 G  Bm     C         B         Em 
SLOWMOTION de   Kimi ga yattekuru 
  D  C 
Mieterukana 
 G   Bm       C       B         Em 
Omosugiru nimotsu Katahou motsu yo 
  D   C 
Teretenai de 
C                    
Waratte kudasai   "TADAIMA" to 
 
Solo: B Em C x6 
      B Em C Am C D 
 B             Em                   C 
|----------------------------------|----------------------------------| 
|----------------------------------|--------------12--12--12--12--12--| 
|--12--11--11--12--12--12--12--12--|----------------------------------| 
|----------------------------------|--10--10--10----------------------| 
|----------------------------------|----------------------------------| 
|----------------------------------|----------------------------------| 
  
 B             Em                   C 
|----------------------------------|----------------------------| 
|----------------------------------|----------------------------| 
|--12--11--11--12--12--12--12--12--|--------------9--9--9--9----| 
|----------------------------------|--10--10--10----------------| 
|----------------------------------|----------------------------| 
|----------------------------------|----------------------------| 
 
 B                  Em                C 
|------------------------------------|--7-7-7--5-5-5--8-8-8--7--7--| 
|--------------------10-10-10--8--8--|-----------------------------| 
|--12-12-12--11--11------------------|-----------------------------| 
|------------------------------------|-----------------------------| 
|------------------------------------|-----------------------------| 
|------------------------------------|-----------------------------| 
 
Am                                   C                                                                 
|-10-10-10--8-8-8--7-7-7------------|--12-12-12--10-10-10--8-8-8--7-7-7-| 
|-------------------------10-10-10--|-----------------------------------| 
|-----------------------------------|-----------------------------------| 
|-----------------------------------|-----------------------------------| 
|-----------------------------------|-----------------------------------| 
|-----------------------------------|-----------------------------------| 
 
 D 
|--10--10--10--10--10--10--10--10--|--10----------------| 
|----------------------------------|--------------------| 
|----------------------------------|--------------------| 
|----------------------------------|--------------------| 
|----------------------------------|--------------------| 
|----------------------------------|--------------------| 
 
  G    Bm        C       B          Em 
Naname ni sashikomu   Asahi no naka de 
  D     C 
Kimi wa kitto 
 G  Bm       C      B       Em 
Omoidashite iru Wasurekaketeta 
  D    C 
Kono machinami 
G   Bm       C         B        Em 
Ekikara umi e to   Tsuzuku sakamichi 
  D    C 
Kudari nagara 
  G     Bm      C         B       Em 
Nani mo nai keredo   Tsumaranai kedo 
  D     C 
Kimi no machi wa 
C 
Kotaete kureru   "OKAERI" to 
B||--8----7/3-3--5-5----|--8----7/10----8----|| 
Ending: C D Bm 

	  

No existe una video leccione para esta canción

request
Aumentar uno tonoAumentar uno tono
Aumentar uno semi-tonoAumentar uno semi-tono
Disminuir uno semi-tonoDisminuir uno semi-tono
Disminuir uno tonoDisminuir uno semi-tono
LosAcordes
Buscar
auto avanzar rasgueos aumentar disminuir cambiar color esconder acordes gráficos
losacordes exhibir acordes losacordes youTube video losacordes ocultar tabs losacordes ir hacia arriba losacordes