Distillers

Início > Distillers > acordes

Collosus U.S.A Tablatura

Distillers

Dificultad:Ningún gradoNingún grado

oi! punx

tuner correct add songbook print version text version salvar en e-mail
acordesukuleletablaturabajobateríaarmónicaflautacavacopiano Guitar Pro
acordes

Collosus U.S.A

	  Pre-Intro (Strumming changes a few times)  
e|---------------------------------------------------------------------------|  
B|---------------------------------------------------------------------------|  
G|---------------------------------------------------------------------------|  
D|---4------------------------------------8---3-------8---3---9--------------|  
A|---2---5---7-----(repeat 6 times)---6---6---1---6---6---1---7--------------|  
E|-------3---5------------------------4-----------4--------------------------|  
 
Intro 'I know what you want....'  
e|---------------------------------------------------------------------------|  
B|---------------------------------------------------------------------------|  
G|---------------------------------------------------------------------------|  
D|-------8---3----(reapeat 4 times)-------8---3---9--------------------------|  
A|---6---6---1------------------------6---6---1---7--------------------------|  
E|---4--------------------------------4--------------------------------------|  
 
'What you live for when you no one...'  
e|---------------------------------------------------------------------------|  
B|---------------------------------------------------------------------------|  
G|---------------------------------------------------------------------------|  
D|-------8---3-----(repeat 10 times)-----------------------------------------|  
A|---6---6---1---------------------------------------------------------------|  
E|---4-----------------------------------------------------------------------|  
 
'Well hell yeah, don't walk away...'  
e|---------------------------------------------------------------------------|  
B|---------------------------------------------------------------------------|  
G|---------------------------------------------------------------------------|  
D|---------------------------------------8---3-------8---3---9---------------|  
A|---6---5---8----(repeat 4 times)---6---6---1---6---6---1---7---------------|  
E|---4---3---6-----------------------4-----------4---------------------------|  
 
'Met a man on the street...'  
e|---------------------------------------------------------------------------|  
B|---------------------------------------------------------------------------|  
G|---------------------------------------------------------------------------|  
D|-------8---3----(repeat 3 times)-------8---3---9---------------------------|  
A|---6---6---1-----------------------6---6---1---7---------------------------|  
E|---4-------------------------------4---------------------------------------|  
 
'I know what you want...'  
e|---------------------------------------------------------------------------|  
B|---------------------------------------------------------------------------|  
G|---------------------------------------------------------------------------|  
D|-------8---3----(repeat 5 times)-------8---3---9---------------------------|  
A|---6---6---1-----------------------6---6---1---7---------------------------|  
E|---4-------------------------------4---------------------------------------|  
 
 

	  

No existe una video leccione para esta canción

request
LosAcordes
Buscar
auto avanzar rasgueos aumentar disminuir cambiar color esconder acordes gráficos
losacordes exhibir acordes losacordes youTube video losacordes ocultar tabs losacordes ir hacia arriba losacordes