Diego Torres

Início > Diego Torr... > acordes

Penélope Tablatura

Diego Torres

Dificultad:ExpertoExperto

Demon-Anger

tuner correct add songbook print version text version salvar en e-mail
acordesukuleletablaturabajobateríaarmónicaflautacavacopiano Guitar Pro
acordes

Penélope

Áño: 2004 - Álbum: Diego Torres: MTV Unplugged

Tono:  Gm Más
Penélope Key DmDm
Penélope Key D#mD#m
Penélope Key EmEm
Penélope Key FmFm(Disminuir uno tono)
Penélope Key F#mF#m(Disminuir uno semi-tono)
Penélope Key GmGm(tono original)
Penélope Key G#mG#m(Aumentar uno semi-tono)
Penélope Key AmAm(Aumentar uno tono)
Penélope Key A#mA#m
Penélope Key BmBm
Penélope Key CmCm
Penélope Key C#mC#m
	  Solo: 
e--------------------------------------------------------------------------------------------------- 
B--------------------------------------------------------------------------------------------------- 
G-----------------------------------------9---9-------------------------------------------------- 
D--11---11---11---11---9---9-------------------------------------------------------------- 
A---------------------------------------------------12---12--12--12--12--11--12------- 
E---------------------------------------------------------------------------------------------------- 
 
------------------------------------------------------------------------------------------------------} 
------------------------------------------------------------------------------------------------------} 
------------------------------------------------------------------------------------------------------} 
----9h11—9h11p9--------------------------------------------------------------------------}       x2 
------------------------------------------------------------------------------7--9--9---7--7-----} 
----------------------------------11--7--9-----9--9--9--9---7--7----------------------------} 
 

	  

No existe una video leccione para esta canción

request
LosAcordes
Buscar
auto avanzar rasgueos aumentar disminuir cambiar color esconder acordes gráficos
losacordes exhibir acordes losacordes youTube video losacordes ocultar tabs losacordes ir hacia arriba losacordes