Devotos

Início > Devotos > acordes

Tem de tudo Tablatura

Devotos

Dificultad:Ningún gradoNingún grado

tuner correct add songbook print version text version salvar en e-mail
acordesukuleletablaturabajobateríaarmónicaflautacavacopiano Guitar Pro
acordes

Tem de tudo

	  Intro: riff1
                   (toca-se 2x)
e|---------------|--------------|--------------|
B|---------------|--------------|--------------|
G|-0/10~----10-|--------------|-10-10-10-10~-|
D|---------------|-4-xx-8-8-7-7-|--------------|
A|---------------|-4-xx-8-8-7-7-|--------------|
E|---------------|-2-xx-6-6-5-5-|--------------|

(F# A# A) (abafando)
Vamos fazer, vamos viver, vamos detonar e botar pra fuder!!!
F# (A# A) 
Tem afoxé, tem punk rock, tem rock'n roll, tem samba e tem pagode
F# (A# A) 
Tem afoxé, tem punk rock, tem rock'n roll, tem samba e tem pagode

e|-----------------------------------------------------------|
B|-----------------------------------------------------------|
G|------------010~------------012~-----------09~----------|
D|-4-4-4-4-4--------4-4-4-4-4-------4-4-4-4-4------4-4-4-4-4-|
A|-4-4-4-4-4--------4-4-4-4-4-------4-4-4-4-4------4-4-4-4-4-|
E|-2-2-2-2-2--------2-2-2-2-2-------2-2-2-2-2------2-2-2-2-2-|

Vai!!

F# (A# A)

(repete tudo)

F# (A# A)
Me digam o que está faltando. Está faltando é hardcore!!!
F# (A# A)
Me digam o que está faltando. Está faltando é hardcore!!!
F# (A# A)
Me digam o que está faltando. Está faltando é hardcore!!!
F# (A# A)
É hardcore! É hardcore! É hardcore!

(repete 8x)

F# A# A
É hardcore!!

(e termina com F# A# A)



_______________________________________________________
Contribuição: Gabriel Osias Aguiar de Souza([email protected])
	  

No existe una video leccione para esta canción

request
Aumentar uno tonoAumentar uno tono
Aumentar uno semi-tonoAumentar uno semi-tono
Disminuir uno semi-tonoDisminuir uno semi-tono
Disminuir uno tonoDisminuir uno semi-tono
LosAcordes
Buscar
auto avanzar rasgueos aumentar disminuir cambiar color esconder acordes gráficos
losacordes exhibir acordes losacordes youTube video losacordes ocultar tabs losacordes ir hacia arriba losacordes