Destruction

Início > Destructio... > acordes

THRASH TIL DEATH Tablatura

Destruction

Dificultad:ExpertoExperto

matrizarrojito

tuner correct add songbook print version text version salvar en e-mail
acordesukuleletablaturabajobateríaarmónicaflautacavacopiano Guitar Pro
acordes

THRASH TIL DEATH

	  Riff A: 
 
------------------------------------------------------------------------------------------------- 
------------------------------------------------------------------------------------------------- 
------------------------------------------------------------------------------------------------- 
------------------------------------------------------------------------------------------------- 
4-2-------------5-2-------------4-2-------------------8------------------------------------------ 
2-0-000-000-000-3-0-000-000-000-2-0-000-000-000-3-0-3-6--0-3-0----------------------------------- 
 
PLAY IT 2 TIMES FOR THE INTRO , THEN 2 TIMES AGAIN WITH A THRASHING SOLO. 
THE FIRST VERSE THEN BEGINS WITH THE SAME RIFF PLAYED FOUR TIMES. 
 
Riff B: 
 
------------------------------------------------------------------------------------------------- 
------------------------------------------------------------------------------------------------- 
------------------------------------------------------------------------------------------------- 
------------------------------------------------------------------------------------------------- 
1111--9-1111----7-7--7-7------------------------------------------------------------------------- 
9-9---7-9-9-----5-5--4-5-1-0-0------------------------------------------------------------------- 
 
 
THIS IS SURELY FULL OF MISTAKES BUT IT SOUNDS NOT SO BAD 
ANYWAY PLAY IT FOUR TIMES 
 
THEN SECOND VERSE:RIFF A X 4 
THEN RIFF B X 2 
THEN BRIDGE:RIFF B X 4 
 
Riff C: 
 
------------------------------------------------------------------------------------------------- 
------------------------------------------------------------------------------------------------- 
------------------------------------------------------------------------------------------------- 
------------------------------------------------------------------------------------------------- 
------------7/8~~-5-7/8~~-------------7/8~~-5-7/8~~-------------7/8~~-5-7/8~~--5-4-5-4-3-3------- 
0-0-0-0-0-0---------------0-0-0-0-0-0---------------0-0-0-0-0-0----------------3-2-3-2-1-1------- 
 
 
THIS IS THE RIFF UNDER Chorus, PLAY IT FOUR TIMES 
 
THEN RIFF A X 2 
THEN THIRD VERSE:RIFF A X 4 
THEN RIFF B X 2 
THEN BRIDGE:RIFF B X 4 
THEN Chorus:RIFF C X 4 
 
Riff D: 
 
------------------------------------------------------------------------------------------------- 
------------------------------------------------------------------------------------------------- 
------------------------------------------------------------------------------------------------- 
------------------------------------------------------------------------------------------------- 
------------------------------------------------------------------------------------------------- 
332211333322110033221133332211005544335555445555555544335555445555------------------------------- 
 
 

	  

No existe una video leccione para esta canción

request
LosAcordes
Buscar
auto avanzar rasgueos aumentar disminuir cambiar color esconder acordes gráficos
losacordes exhibir acordes losacordes youTube video losacordes ocultar tabs losacordes ir hacia arriba losacordes